PrimaNota.ru - самый крупный в мире бесплатный архив песенных текстов, аккордов, табулатур и нот


Natalie Cole - Unforgettable - текст песни, бас-таба, видео

Регистрация Запомнить меня
Войти через:  Facebook Google Twitter Vk Yandex Mail.ru

Natalie Cole - Unforgettable - текст песни, бас-таба, видео

Печатать
Просмотров: 48
Авторы музыки: Irving Gordon
Авторы текста: Irving Gordon
----------------------------------------------------------------------
                    Unforgettable - Natalie Cole
----------------------------------------------------------------------
Tabbed by: RagnaarMN
Tuning: Standard

G|----------------|----------------|----------------|----------------|
D|3---------------|----------------|----------------|----------------|
A|------------3---|------------3---|3-------2-------|1-----1-3---3---|
E|----------------|----------------|----------------|----------------|

G|----------------|----------------|----------------|----------------|
D|----------------|3---------------|----------------|----------------|
A|--------3-------|----------------|----------------|----------------|
E|1---------------|--------1-------|4-------4-------|4-------4-------|

G|----------------|----------------|----------------|----------------|
D|----------------|----------------|--------0-------|----------------|
A|----------------|----------------|----------------|----------------|
E|3-------3-------|3-------3-------|3---------------|3-------3---3---|

G|----------------|----------------|----------------|----------------|
D|----------------|1-------1-------|--------0-------|----------------|
A|3-------3-------|----------------|1---------------|----------------|
E|----------------|----------------|----------------|3-------3-------|

G|----------------|----------------|----------------|----------------|
D|----------------|----------------|----------------|3---------------|
A|3-------3-------|4---------------|--------3-------|----------------|
E|----------------|----------------|1---------------|--------1-------|

G|----------------|----------------|----------------|----------------|
D|----------------|----------------|--------0-------|--------0-------|
A|----------------|----------------|----------------|----------------|
E|4-------4-------|4-------4-------|3---------------|3---------------|

G|----------------|----------------|----------------|----------------|
D|--------0-------|----------------|----------------|1-------1-------|
A|----------------|----------------|3-------3-------|----------------|
E|3---------------|3-------3---3---|----------------|----------------|

G|----------------|----------------|----------------|----------------|
D|--------0-------|----------------|----------------|3---------------|
A|1---------------|----------------|3-------3-------|----------------|
E|----------------|3-------3-------|----------------|--------1-------|

G|----------------|----------------|----------------|----------------|
D|----------------|1---------------|----------------|----------------|
A|1---------------|----------------|4---------------|4-------4-------|
E|--------3-------|--------4-------|--------4-------|----------------|

G|----------------|----------------|----------------|----------------|
D|2-------2-------|2-------2-------|1-------1-------|1-------1-------|
A|----------------|----------------|----------------|----------------|
E|----------------|----------------|----------------|----------------|

G|----------------|----------------|----------------|----------------|
D|1---------------|1-------1---1---|----------------|----------------|
A|--------1-------|----------------|----------------|2-------2-------|
E|----------------|----------------|4-------4-------|----------------|

G|----------------|----------------|----------------|1---------------|
D|4---------------|1-------1-------|----------------|----------------|
A|--------1-------|----------------|----------------|----------------|
E|----------------|----------------|4-------4-------|4-------4---4---|

G|----------------|----------------|----------------|----------------|
D|----------------|----------------|----------------|3---------------|
A|4-------4-------|3-------3---3---|--------3-------|----------------|
E|----------------|----------------|1---------------|--------1-------|

G|----------------|----------------|----------------|----------------|
D|----------------|----------------|--------0-------|--------0-------|
A|----------------|----------------|----------------|----------------|
E|4-------4-------|4-------4-------|3---------------|3---------------|

G|----------------|----------------|----------------|----------------|
D|--------0-------|----------------|----------------|1-------1-------|
A|----------------|----------------|3-------3-------|----------------|
E|3---------------|3-------3---3---|----------------|----------------|

G|----------------|----------------|----------------|----------------|
D|--------0-------|----------------|----------------|3---------------|
A|1---------------|----------------|3-------3-------|----------------|
E|----------------|3-------3-------|----------------|----------------|

G|----------------|----------------|----------------|----------------|
D|----------------|----------------|2---------------|----------------|
A|----------------|----------------|----------------|-------1--------|
E|1---------------|----------------|----------------|----------------|

Tabs should match live 3:36 music. Credit to Jan Bjorklund's version.

======================================================================
Добавлено: 02.06.2016
Другие материалы по этой песне:

Страница создана 30.03.2012
http://primanota.ru/natalie-cole/unforgettable-chords.htm
Привет, Гость.
Предлагаем пройти революционный курс по гитаре.
Подарок от PrimaNota.Ru, забирай!