PrimaNota.ru - самый крупный в мире бесплатный архив песенных текстов, аккордов, табулатур и нот


Nas - Hate me now (feat. Puff Daddy) - текст песни, бас-таба, видео

Регистрация Запомнить меня
Войти через:  Facebook Google Twitter Vk Yandex Mail.ru

Nas - Hate me now (feat. Puff Daddy) - текст песни, бас-таба, видео

Печатать
Просмотров: 279
Уроки эстрадного вокала в Санкт-Петербурге
-------------------------------------------------------------------------------
                             Hate Me Now - Nas
-------------------------------------------------------------------------------
Tabbed by: istarii
E-mail: thompson.luke@mail.com

Tuning: Standard


  Verse/Chorus
G|-----------------|-----------------|-----------------|-----------------|
D|-----------------|-----------------|-----------------|-----------------|
A|-5-----3-5-----3-|-5-----3-5-----3-|-5-----3-5-----3-|-5-----3-5-----3-|
E|-----5-------5---|-----5-------5---|-----5-------5---|-----5-------5---|


  Play this before and after the chorus
G|-2------2--------|
D|-----5-----5-----|
A|-----------------|
E|-----------------|




| /  slide up
| \  slide down
| h  hammer-on
| p  pull-off
| ~  vibrato
| +  harmonic
| x  Mute note
===============================================================================
Добавлено: 06.08.2015
Вам также может быть интересно:
Другие материалы по этой песне:
  • Аккорды и текст

Страница создана 18.06.2012
http://primanota.ru/nas/hate-me-now-chords.htm
Привет, Гость.
Предлагаем пройти революционный курс по гитаре.
Подарок от PrimaNota.Ru, забирай!