PrimaNota.ru - самый крупный в мире бесплатный архив песенных текстов, аккордов, табулатур и нот


My Chemical Romance - You know what they do to guys like us - таба, видео

Регистрация Запомнить меня
Войти через:  Facebook Google Twitter Vk Yandex Mail.ru

My Chemical Romance - You know what they do to guys like us - таба, видео

Печатать
Просмотров: 292


Intro/Verse
e|------------------------------------------------------------------------------|
B|-----------------------------7-------------------------------------7----------|
G|--7--------7--------6------6---6---6-----7--------7-------6------6---6---6----|
D|--7--------7--------7----7-------7-------7--------7-------7----7-------7------|
A|------------------------------------------------------------------------------|
E|----7-7-7-----7-7-----7--------------------7-7-7-----7-7-----7----------------|
                                                      2nd Guitar comes in
                                                      After 1st time through.
e|------------------------------------7--------------|--------------------------|
B|--------------------------7-----------7---7--------|--------------------------|
G|--7--------7------6-----6---6---6---------6--------|-9-h11--7-h9--6-h7-6-4----|X3
D|--7--------7------7---7-------7-----------7--------|--------------------------|
A|----7-7-7----7-7----7---------------------7--------|--------------------------|
E|---------------------------------------------------|--------------------------|

e|---------------------------------------------------------------------------|
B|---------------------------------------------------------------------------|
G|-6-4--6-7--7-9--9-11~----12-p11-11--14-p12-12--16-p14--9/11~--9-h7-7--9-h7-|
D|---------------------------------------------------------------------------|
A|---------------------------------------------------------------------------|
E|---------------------------------------------------------------------------|
Chorus
e|---------------|-----------------------------------------------------------|
B|---------------|-----------------------------------------------------------|
G|-7-7-9~--------|--44444444-6666-7777-44444444-6666-7777--11111111-11111111-|X2
D|---------------|--44444444-6666-7777-44444444-6666-7777--11111111-11111111-|
A|---------------|--22222222-4444-5555-22222222-4444-5555--99999999-99999999-|
E|---------------|-----------------------------------------------------------|
                                           Interlude part1(1:59)
e|---------------------------------------|---------------------------------|----|
B|---------------------------------------|---------------------------------|----|
G|--4444444-6666-7777-44444444-6666-7777-|---------------------------------|----|
D|--4444444-6666-7777-44444444-6666-7777-|-4--5--4--5--4--5--4--5----------| |--|x8
A|--2222222-4444-5555-22222222-4444-5555-|---2--2--2--2--2--2--2-----------|----|
E|---------------------------------------|---------------------------------|----|
   During the Interlude,the second guitar comes in (2:05,2:06)
e|-------------------------------------------------------------------------|----|
B|------7-----------12------14--------14--15-------------------------------| 1--|
G|-4--7---7---9--12----12------14--11--------------------------------------|----|
D|-------------------------------------------------------------------------|----|
A|-------------------------------------------------------------------------|----|
E|-------------------------------------------------------------------------|----|
  Interlude Part 2 (2:12)
e|-------------------------------------------------------------------------| |
B|----7-7------7-8------7-7--------------------7-7------7-8------7-7-------| |
G|-4-7-7-7--4-7-7-7--4-7-7-7--9-7-6-7-6-4---4-7-7-7--4-7-7-7--4-7-7-7--9~--| |
D|-------------------------------------------------------------------------| |
A|-------------------------------------------------------------------------| |
E|-------------------------------------------------------------------------| |
  Easy Solo Part(2:26)
e|---------------------------------------------------------------------------|
B|---------------------------------------------------------------------------|
G|-9-7-6-7-9~-7~-9~-11~-9~---------------------------------------------------|x2
D|---------------------------------------------------------------------------|
A|---------------------------------------------------------------------------|
E|---------------------------------------------------------------------------|
  Also, you can play the end part of the chorus like this, instead of just 9,11,amp; 11
e|---------------------------------------------------------------------------|
B|---------------------------------------------------------------------------|
G|-11-12-11--9--11---11-12--11-9--11---11-14---------------------------------|x2
D|-11-12-11--9--11---11-12--11-9--11---11-14---------------------------------|
A|-9--10--9--7--9----9--10--9--7--9----9--12---------------------------------|
E|---------------------------------------------------------------------------|


P.S. If you wanna put this tab into a word processor, use note pad.
Word connects every two dashes and it really screws up the placement.  USE NOTEPAD 
Dalton B. daltonhiei_861@hotmail.com


Добавлено: 01.09.2013
Другие материалы по этой песне:
  • Аккорды и текст

Страница создана 01.09.2013
http://primanota.ru/my-chemical-romance/you-know-what-they-do-to-guys-like-us-chords.htm
Привет, Гость.
Предлагаем пройти революционный курс по гитаре.
Подарок от PrimaNota.Ru, забирай!