PrimaNota.ru - самый крупный в мире бесплатный архив песенных текстов, аккордов, табулатур и нот


My Chemical Romance - Make Room - текст песни, таба, бас-таба, видео

Регистрация Запомнить меня
Войти через:  Facebook Google Twitter Vk Yandex Mail.ru

My Chemical Romance - Make Room - текст песни, таба, бас-таба, видео

Печатать
Просмотров: 360
-------------------------------------------------------------------------------
                             MAKE ROOM!!!! - MY CHEMICAL ROMANCE
-------------------------------------------------------------------------------
Tabbed by: Marshall Nelson
credit to k0bra-kid's bass tab, really helped a lot
Tuning:D

INTRO
F|---------------------------------------------------------------------------|
A|---------------------------------------------------------------------------|
F|---------------------------------------------------------------------------|
C|---------------------------------------------------------------------------| x2
G|---------3-3---------3-3--------3-3---------3-3----------------------------|
D|-0-3-4-5-----0-3-4-5----0-3-4-5-----0-3-4-5--------------------------------|

VERSE 1 
F|---------------------------------------------------------------------------|
A|---------------------------------------------------------------------------|
F|---------5-5----------5-5----------5-5----------5-5------------------------|
C|---5-6-7-5-5----5-6-7-5-5----5-6-7-5-5----5-6-7-5-5------------------------|
G|-0-5-6-7-3-3--0-5-6-7-3-3--0-5-6-7-3-3--0-5-6-7-3-3------------------------|
D|-0-3-4-5------0-3-4-5------0-3-4-5------0-3-4-5----------------------------|
                                                                              x2
F|---------------------------------------------------------------------------|
A|---------5-5----------5-5--------------------------------------------------|
F|---5-6-7-5-5----5-6-7-5-5--------------------------------------------------|
C|-0-5-6-7-3-3--0-5-6-7-3-3----5-6-7-----------------------------------------|
G|-0-3-4-5------0-3-4-5------0-5-6-7-----------------------------------------|
D|---------------------------0-3-4-5-----------------------------------------|

CHORUS
F|---------------------------------------------------------------------------|
A|---------------------------------------------------------------------------|
F|---7-7-7-7-7-7-7-7---------------------------------------------------------|
C|---7-7-7-7-7-7-7-7---------------------------------------------------------| x3
G|---5-5-5-5-5-5-5-5-0-3-4-5-5553-0-0-5553-----------------------------------|
D|---------------------------------------------------------------------------|

F|---------------------------------------------------------------------------|
A|---------------------------------------------------------------------------|
F|---7-7-7-7-7-7-7-7---------------------------------------------------------|
C|---7-7-7-7-7-7-7-7-777777777-\---------------------------------------------|
G|---5-5-5-5-5-5-5-5-777777777-\---------------------------------------------|
D|---------------------------------------------------------------------------|

PRE-VERSE
F|---------------------------------------------------------------------------|
A|---------------------------------------------------------------------------|
F|---------------------------------------------------------------------------|
C|---------------------------------------------------------------------------|
G|---------------------------------------------------------------------------|
D|-0-3-5--0-3-5--------------------------------------------------------------|

VERSE 2
F|---------------------------------------------------------------------------|
A|---------------------------------------------------------------------------|
F|---------5-5----------5-5----------5-5----------5-5------------------------|
C|---5-6-7-5-5----5-6-7-5-5----5-6-7-5-5----5-6-7-5-5------------------------|
G|-0-5-6-7-3-3--0-5-6-7-3-3--0-5-6-7-3-3--0-5-6-7-3-3------------------------|
D|-0-3-4-5------0-3-4-5------0-3-4-5------0-3-4-5----------------------------|
                                                                              
F|---------------------------------------------------------------------------|
A|---------5-5----------5-5--------------------------------------------------|
F|---5-6-7-5-5----5-6-7-5-5--------------------------------------------------|
C|-0-5-6-7-3-3--0-5-6-7-3-3----5-6-7-----------------------------------------|
G|-0-3-4-5------0-3-4-5------0-5-6-7-----------------------------------------|
D|---------------------------0-3-4-5-----------------------------------------|

CHORUS
F|---------------------------------------------------------------------------|
A|---------------------------------------------------------------------------|
F|---7-7-7-7-7-7-7-7---------------------------------------------------------|
C|---7-7-7-7-7-7-7-7---------------------------------------------------------| x3
G|---5-5-5-5-5-5-5-5-0-3-4-5-5553-0-0-5553-----------------------------------|
D|---------------------------------------------------------------------------|

F|---------------------------------------------------------------------------|
A|---------------------------------------------------------------------------|
F|---7-7-7-7-7-7-7-7----------------------7-6-5-4-3-8-7-6-5-4-3--------------|
C|---7-7-7-7-7-7-7-7----------------------7-6-5-4-3-8-7-6-5-4-3--------------|
G|---5-5-5-5-5-5-5-5-5-3-5-3-5-3-5-3-5-3--5-4-3-2-1-6-5-4-3-2-1--------------|
D|---------------------------------------------------------------------------|

BRIDGE
F|---------------------------------------------------------------------------|
A|---------------------------------------------------------------------------|
F|---------------------------------------------------------------------------|
C|--7----------10---------12-------8-------7---------------------------------| x6
G|--7----------10---------12-------8-------7---------------------------------|
D|--5----------8----------10-------6-------5---------------------------------|

OUTRO
F|---------------------------------------------------------------------------|
A|---------------------------------------------------------------------------|
F|---------------------------------------------------------------------------|
C|---7----------10----------12---------8---------7---------------------------|
G|---7-(x16)----10-(x16)----12-(x8)----8-(x8)----7-(x8)----------------------|
D|---5----------8-----------10---------6---------5---------------------------|

************************************

| /   slide up
| \   slide down
| h   hammer-on
| p   pull-off
| ~   vibrato
| +   harmonic
| x   Mute note
| b   Bend
| pb  Pre-bend
| br  Bend release
| pbr Pre-bend release
| brb Bend release bend

************************************
Добавлено: 08.09.2015
Другие материалы по этой песне:
  • Аккорды и текст

Страница создана 09.08.2014
http://primanota.ru/my-chemical-romance/make-room-chords.htm
Привет, Гость.
Предлагаем пройти революционный курс по гитаре.
Подарок от PrimaNota.Ru, забирай!