PrimaNota.ru - самый крупный в мире бесплатный архив песенных текстов, аккордов, табулатур и нот


My Chemical Romance - Cubicles - аккорды и текст, таба, бас-таба, видео

Регистрация Запомнить меня
Войти через:  Facebook Google Twitter Vk Yandex Mail.ru

My Chemical Romance - Cubicles - аккорды и текст, таба, бас-таба, видео

Печатать
Просмотров: 325
Cubicles
My Chemical Romance
Intro:
guitar 1
e|-----------------------------------------------|
b|-----------------------------------------------|
g|-x-666666-4-666666-6-888888-8-999-888----------|
d|-x-xxxxxx-x-xxxxxx-x-xxxxxx-x-xxx-xxx----------|
a|-x-444444-2-444444-4-666666-6-777-666----------|
E|-----------------------------------------------|

e|-----------------------------------------------|
b|-----------------------------------------------|
g|-x-666666-4-666666-6-888888-8-888-666----------|
d|-x-xxxxxx-x-xxxxxx-x-xxxxxx-x-xxx-xxx----------|
a|-x-444444-2-444444-4-666666-6-666-444----------|
E|-----------------------------------------------|

guitar 2
e|-----------------------------------------------|
b|-----------------------------------------------|
g|-----------------------------------------------|
d|-x-222222-x-444444-x-666666-x-888-999----------|
a|-x-222222-x-444444-x-666666-x-888-999----------|
E|-x-000000-x-222222-x-444444-x-666-777----------|

e|-----------------------------------------------|
b|-----------------------------------------------|
g|-----------------------------------------------|
d|-x-222222-x-444444-x-555555-x-666-444----------|
a|-x-222222-x-444444-x-666666-x-666-444----------|
E|-x-000000-x-222222-x-333333-x-444-222----------|

Verse:
guitar 1
e|-----------------------------------------------|
b|-----------------------------------------------|
g|-x-666666-4-666666-6-888888-8-999-888----------|
d|-x-xxxxxx-x-xxxxxx-x-xxxxxx-x-xxx-xxx----------|
a|-x-444444-2-444444-4-666666-6-777-666----------|
E|-----------------------------------------------|

e|-----------------------------------------------|
b|-----------------------------------------------|
g|-x-666666-4-666666-6-111111111111-11-333-xxx---|
d|-x-xxxxxx-x-xxxxxx-x--x-x-x-x-x-x--x-xxx-xxx---|
a|-x-444444-2-444444-4--9-9-9-9-9-9--9-111-xxx---|
E|-----------------------------------------------|

e|-----------------------------------------------|
b|-----------------------------------------------|
g|-x-666666-4-666666-6-888888-8-999-888----------|
d|-x-xxxxxx-x-xxxxxx-x-xxxxxx-x-xxx-xxx----------|
a|-x-444444-2-444444-4-666666-6-777-666----------|
E|-----------------------------------------------|

e|-----------------------------------------------|
b|-----------------------------------------------|
g|-x-666666-4-666666-6-111111111111-11-333-444---|
d|-x-xxxxxx-x-xxxxxx-x--x-x-x-x-x-x--x-xxx-xxx---|
a|-x-444444-2-444444-4--9-9-9-9-9-9--9-111-222---|
E|-----------------------------------------------|

guitar 2
e|-----------------------------------------------|
b|-----------------------------------------------|
g|-----------------------------------------------|
d|-x-222222-x-444444-x-666666-x-888-999----------|
a|-x-222222-x-444444-x-666666-x-888-999----------|
E|-x-000000-x-222222-x-444444-x-666-777----------|

e|-----------------------------------------------|
b|-----------------------------------------------|
g|-----------------------------------------------|
d|-x-222222-x-444444-x-555555-x-666-xx4----------|
a|-x-222222-x-444444-x-666666-x-666-xx4----------|
E|-x-000000-x-222222-x-333333-x-444-xx2----------|

e|-----------------------------------------------|
b|-----------------------------------------------|
g|-----------------------------------------------|
d|-x-222222-x-444444-x-666666-x-888-999----------|
a|-x-222222-x-444444-x-666666-x-888-999----------|
E|-x-000000-x-222222-x-444444-x-666-777----------|

e|-----------------------------------------------|
b|-----------------------------------------------|
g|-----------------------------------------------|
d|-x-222222-x-444444-x-555555-x-666-444----------|
a|-x-222222-x-444444-x-666666-x-666-444----------|
E|-x-000000-x-222222-x-333333-x-444-222----------|

Chorus:
guitar 1     
e|-----------------------------------------------|
b|-----------------------------------------------|
g|------------------.-.--11-11--8~~~~~~~~--------|
d|-2-2-22-2--8-8-88-8-8---x--x--x~~~~~~~~--------|
a|-2-2-22-2--8-8-88-8-8---9--9--6~~~~~~~~--------|
E|-0-0-00-0--6-6-66-6-6--------------------------|

e|-----------------------------------------------|
b|-----------------------------------------------|
g|------------------.-.--11--9--8~~~-666-888-----|
d|-2-2-22-2--8-8-88-8-8---x--x--x~~~-xxx-xxx-----|
a|-2-2-22-2--8-8-88-8-8---9--7--6~~~-444-666-----|
E|-0-0-00-0--6-6-66-6-6--------------------------|

e|-----------------------------------------------|
b|-----------------------------------------------|
g|-----------------------------------------------|
d|-2-2-22-2--8-8-88-8888--9999-8888-66666666-----|
a|-2-2-22-2--8-8-88-8888--9999-8888-66666666-----|
E|-0-0-00-0--6-6-66-6666--7777-6666-44444444-----|

guitar 2
e|-----------------------------------------------|
b|-----------------------------------------------|
g|------------------.-.--------------------------|
d|-2-2-22-2--8-8-88-8-8---9999-8888-66666666-----|
a|-2-2-22-2--8-8-88-8-8---9999-9999-66666666-----|
E|-0-0-00-0--6-6-66-6-6---7777-6666-44444444-----|

e|-----------------------------------------------|
b|-----------------------------------------------|
g|------------------.-.--------------------------|
d|-2-2-22-2--8-8-88-8-8--99-1111-66--444-666-----|
a|-2-2-22-2--8-8-88-8-8--99-1111-66--444-666-----|
E|-0-0-00-0--6-6-66-6-6--77--9-9-44--222-444-----|

e|-----------------------------------------------|
b|-----------------------------------------------|
g|-----------------------------------------------|
d|-2-2-22-2--8-8-88-8888--9999-8888-66666666-----|
a|-2-2-22-2--8-8-88-8888--9999-8888-66666666-----|
E|-0-0-00-0--6-6-66-6666--7777-6666-44444444-----|

Post-chorus:
guitar 1
e|-----------------------------------------------|
b|-----------------------------------------------|
g|-x-666666-4-666666-6-888888-8-999-888----------|
d|-x-xxxxxx-x-xxxxxx-x-xxxxxx-x-xxx-xxx----------|
a|-x-444444-2-444444-4-666666-6-777-666----------|
E|-----------------------------------------------|

e|-----------------------------------------------|
b|-----------------------------------------------|
g|-x-666666-4-666666-6-111111111111-11-333-xxx---|
d|-x-xxxxxx-x-xxxxxx-x--x-x-x-x-x-x--x-xxx-xxx---|
a|-x-444444-2-444444-4--9-9-9-9-9-9--9-111-xxx---|
E|-----------------------------------------------|

guitar 2
e|-----------------------------------------------|
b|-----------------------------------------------|
g|-----------------------------------------------|
d|-x-222222-x-444444-x-666666-x-888-999----------|
a|-x-222222-x-444444-x-666666-x-888-999----------|
E|-x-000000-x-222222-x-444444-x-666-777----------|

e|-----------------------------------------------|
b|-----------------------------------------------|
g|-----------------------------------------------|
d|-x-222222-x-444444-x-555555-x-666-xx4----------|
a|-x-222222-x-444444-x-666666-x-666-xx4----------|
E|-x-000000-x-222222-x-333333-x-444-xx2----------|

Play verse
Play chorus

Bridge:
guitar 1
e|-----------------------------------------------|
b|-----------------------------------------------|
g|---......-........-................------------|
d|-9-999999-99999999-9999999999999999------------|
a|-7-777777-99999999-1111111111111111-(elevens)--|
E|-----------------------------------------------|

e|-----------------------------------------------|
b|-----------------------------------------------|
g|-........-........-..............--------------|
d|-99999999-99999999-99999999999999--9-----------|
a|-77777777-99999999-11111111111111-11-----------|
E|-----------------------------------------------|

both guitars
e|-----------------------------------------------|
b|-----------------------------------------------|
g|-........-........-................------------|
d|-99999999-99999999-9999999999999999------------|
a|-77777777-99999999-1111111111111111------------|
E|-----------------------------------------------|

guitar 1
e|-----------------------------------------------|
b|-----------------------------------------------|
g|-........-......--------------8-9-11-----------|
d|-99999999-999999-9----------9------------------|
a|-77777777-999999-9-----------------------------|
E|-----------------------------------------------|

guitar 2
e|-----------------------------------------------|
b|-----------------------------------------------|
g|-........-......---..............--------------|
d|-99999999-999999-9-99999999999999--9-----------|
a|-77777777-999999-9-11111111111111-11-----------|
E|-----------------------------------------------|

guitar 1
e|-----------------------------------------------|
b|-----------------------------------------------|
g|----------------------------------8h9p8--------|
d|-8-999999-8-999999-8-999999-8-999--------------|
a|-----------------------------------------------|
E|-----------------------------------------------|

e|-----------------------------------------------|
b|-----------------------------------------------|
g|----------------------------------8h9h11-------|
d|-8-999999-8-999999-8-999999-8-999--------------|
a|-----------------------------------------------|
E|-----------------------------------------------|

guitar 2
e|-----------------------------------------------|
b|-----------------------------------------------|
g|-----------------------------------------------|
d|-x-999999-x-999999-x-999999-x-999999-----------|
a|-x-777777-x-999999-x-111111-x-111111-----------|
E|-----------------------------------------------|

e|-----------------------------------------------|
b|-----------------------------------------------|
g|-----------------------------------------------|
d|-x-999999-x-999999-x-999999-x-999999-----------|
a|-x-777777-x-999999-x-111111-x-111111-----------|
E|-----------------------------------------------|

guitar 1
e|-----------------------------------------------|
b|-----------------------------------------------|
g|----------------------------------8h9p8--------|
d|-8-999999-8-999999-8-999999-8-999--------------|
a|-----------------------------------------------|
E|-----------------------------------------------|

e|-----------------------------------------------|
b|-----------------------------------------------|
g|----------------------------------8h9h11-------|
d|-8-999999-8-999999-8-999999-8-999--------------|
a|-----------------------------------------------|
E|-----------------------------------------------|

guitar 2
e|-----------------------------------------------|
b|-----------------------------------------------|
g|-x-999999-x-888888-x-999999-x-111111111111-----|
d|-x-xxxxxx-x-xxxxxx-x-xxxxxx-x--x-x-x-x-x-x-----|
a|-x-777777-x-666666-x-777777-x--9-9-9-9-9-9-----|
E|-----------------------------------------------|

e|-----------------------------------------------|
b|-----------------------------------------------|
g|-x-999999-x-888888-x-999999-x-111111111111-----|
d|-x-xxxxxx-x-xxxxxx-x-xxxxxx-x--x-x-x-x-x-x-----|
a|-x-777777-x-666666-x-777777-x--9-9-9-9-9-9-----|
E|-----------------------------------------------|

guitar 1
e|-----------------------------------------------|
b|-------------------------4h5p4-----------------|
g|-....---..---....------4-------4---------------|
d|-2222-2-44-4-6666-6-xx-------------------------|
a|-2222-2-44-4-6666-6-xx-------------------------|
E|-0000-0-22-2-4444-4-xx-------------------------|

e|-----------------------------------------------|
b|-----------------------------------------------|
g|-....---..---....------4----4------------------|
d|-2222-2-44-4-6666-6-xx-6-xx-6------------------|
a|-2222-2-44-4-6666-6-xx---xx--------------------|
E|-0000-0-22-2-4444-4-xx---xx--------------------|

guitar 2
e|-----------------------------------------------|
b|-----------------------------------------------|
g|-....---..---....-------4-3--------------------|
d|-2222-2-44-4-6666-6-xx------4------------------|
a|-2222-2-44-4-6666-6-xx-------------------------|
E|-0000-0-22-2-4444-4-xx-------------------------|

e|-----------------------------------------------|
b|-----------------------------------------------|
g|-....---..---....------4----4------------------|
d|-2222-2-44-4-6666-6-xx-6-xx-6------------------|
a|-2222-2-44-4-6666-6-xx---xx--------------------|
E|-0000-0-22-2-4444-4-xx---xx--------------------|

guitar 1
e|-12---12---11---11---12---12---11---11---------|
b|---12---12---12---12---12---12---12---12-------|
g|-----------------------------------------------|
d|-----------------------------------------------|
a|-----------------------------------------------|
E|-----------------------------------------------|

guitar 2
e|-----------------------------------------------|
b|-----------------------------------------------|
g|-....---..---....---------4--------------------|
d|-2222-2-44-4-6666-6-------6--------------------|
a|-2222-2-44-4-6666-6--....----------------------|
E|-0000-0-22-2-4444-4--4444----------------------|

e|-----------------------------------------------|
b|-----------------------------------------------|
g|-....---..---....------4----4------------------|
d|-2222-2-44-4-6666-6-xx-6-xx-6------------------|
a|-2222-2-44-4-6666-6-xx---xx--------------------|
E|-0000-0-22-2-4444-4-xx---xx--------------------|

Outro:
guitar 2
e|-----------------------------------------------|
b|----------------------....---------------------|
g|-....---....---....---4444-4-------------------|
d|-2222-2-4444-4-6666-6-6666-6-------------------|
a|-2222-2-4444-4-6666-6--------------------------|
E|-0000-0-2222-2-4444-4--------------------------|

e|-----------------------------------------------|
b|-----------------------------------------------|
g|-....---....-----------.-.---------------------|
d|-2222-2-4444-4-66--66--6-4---2~~~~~~~~---------|
a|-2222-2-4444-4-66--66--6-x---2~~~~~~~~---------|
E|-0000-0-2222-2-44--44--4-2---0~~~~~~~~---------|

guitar 1
e|-----------------------------------------------|
b|-----------------------------------------------|
g|-----------------------.-.---------------------|
d|---------------66--66--6-6---2~~~~~~~~---------|
a|---------------66--66--6-6---2~~~~~~~~---------|
E|---------------44--44--4-4---0~~~~~~~~---------|
Добавлено: 04.04.2015
Другие материалы по этой песне:

Страница создана 02.03.2012
http://primanota.ru/my-chemical-romance/cubicles-chords.htm
Привет, Гость.
Предлагаем пройти революционный курс по гитаре.
Подарок от PrimaNota.Ru, забирай!