PrimaNota.ru - самый крупный в мире бесплатный архив песенных текстов, аккордов, табулатур и нот


My Chemical Romance - Death Before Disco - аккорды и текст, таба, видео

Регистрация Запомнить меня
Войти через:  Facebook Google Twitter Vk Yandex Mail.ru

My Chemical Romance - Death Before Disco - аккорды и текст, таба, видео

Печатать
Просмотров: 208
Death Before Disco
My Chemical Romance
INTRO:
E||-------------------------------------|-----------------------------|
B||--(12)----(12)----(12)---------------|-----------------------------|
G||---12------12------12---10--10---x---|-------------------------x---|
D||---12------12------12---10--10---x---|--10----10----10--8--8---x---|
A||---10------10------10----8---8--(8)--|--10----10----10--8--8---x---|
E||---------------------------------x---|---8-----8-----8--6--6--(6)--|
 
----------------------------------|-----------------------------------------|
--(8)----(8)----(8)---------------|--(10)----(10)----(10)--(10)--(10)-------|
---8------8------8------------x---|---10------10------10----10----10----x---|
---8------8------8---10--10---x---|---10------10------10----10----10----x---|
---6------6------6---10--10---x---|----8-------8-------8-----x-----x----x---|
----------------------8---8--(8)--|--------------------------8-----8---(8)--|
 
-------------------------------------|-----------------------------|
--(12)----(12)----(12)---------------|-----------------------------|
---12------12------12---10--10---x---|-------------------------x---|
---12------12------12---10--10---x---|--10----10----10--8--8---x---|
---10------10------10----8---8--(8)--|--10----10----10--8--8---x---|
---------------------------------x---|---8-----8-----8--6--6--(6)--|

----------------------------------|-----------------------------------------|
--(8)----(8)----(8)---------------|--(10)----(10)----(10)--(10)--(10)-------|
---8------8------8------------x---|---10------10------10----10----10----x---|
---8------8------8---10--10---x---|---10------10------10----10----10----x---|
---6------6------6---10--10---x---|----8-------8-------8-----x-----x----x---|
----------------------8---8--(8)--|--------------------------8-----8---(8)--|

-------------------------------------|-----------------------------|
--(12)----(12)----(12)---------------|-----------------------------|
---12------12------12---10--10---x---|-------------------------x---|
---12------12------12---10--10---x---|--10----10----10--8--8---x---|
---10------10------10----8---8--(8)--|--10----10----10--8--8---x---|
---------------------------------x---|---8-----8-----8--6--6--(6)--|

----------------------------------|-----------------------------------------|
--(8)----(8)----(8)---------------|--(10)----(10)----(10)--(10)--(10)-------|
---8------8------8------------x---|---10------10------10----10----10----x---|
---8------8------8---10--10---x---|---10------10------10----10----10----x---|
---6------6------6---10--10---x---|----8-------8-------8-----x-----x----x---|
----------------------8---8--(8)--|--------------------------8-----8---(8)--|

-------------------------------------|-----------------------------|
--(12)----(12)----(12)---------------|-----------------------------|
---12------12------12---10--10---x---|-------------------------x---|
---12------12------12---10--10---x---|--10----10----10--8--8---x---|
---10------10------10----8---8--(8)--|--10----10----10--8--8---x---|
---------------------------------x---|---8-----8-----8--6--6--(6)--|

----------------------------------|-----------------------------------------|
--(8)----(8)----(8)---------------|--(10)----(10)----(10)--(10)--(10)-------|
---8------8------8------------x---|---10------10------10----10----10----x---|
---8------8------8---10--10---x---|---10------10------10----10----10----x---|
---6------6------6---10--10---x---|----8-------8-------8-----x-----x----x---|
----------------------8---8--(8)--|--------------------------8-----8---(8)--|

VERSE:
-----------------------|---------------|--------------------------|
--(12)-----------------|---------------|--------------------------|
---12------------------|---------------|--5--5--5--5--5--5--5--5--|
---12------------------|---------------|--5--5--5--5--5--5--5--5--|
---10------------------|---------------|--3--3--3--3--3--3--3--3--|
-----------------------|---------------|--------------------------|

--------------------------|----------------------------------|
--------------------------|----------------------------------|
--8--8--8--8--8--8--8--8--|--12--12--12--12--12--12--12--12--|
--8--8--8--8--8--8--8--8--|--12--12--12--12--12--12--12--12--|
--6--6--6--6--6--6--6--6--|--10--10--10--10--10--10--10--10--|
--------------------------|----------------------------------|
  
----------------------------------|--------------------------|
----------------------------------|--------------------------|
--12--12--12--12--12--12--12--12--|--5--5--5--5--5--5--5--5--|
--12--12--12--12--12--12--12--12--|--5--5--5--5--5--5--5--5--|
--10--10--10--10--10--10--10--10--|--3--3--3--3--3--3--3--3--|
----------------------------------|--------------------------|

 PRECHORUS:
--------------------------|--------------------------|
--------------------------|--------------------------|
--8--8--8--8--8--8--8--7--|--5--5--5--5--5--5--5--5--|
--8--8--8--8--8--8--8--7--|--5--5--5--5--5--5--5--5--|
--6--6--6--6--6--6--6--5--|--3--3--3--3--3--3--3--3--|
--------------------------|--------------------------|
 
--------------------------|--------------------------|
--------------------------|--------------------------|
--5--5--5--5--5--5--5--7--|--8--8--8--8--8--8--8--8--|
--5--5--5--5--5--5--5--7--|--8--8--8--8--8--8--8--8--|
--3--3--3--3--3--3--3--5--|--6--6--6--6--6--6--6--6--|
--------------------------|--------------------------|

---------------------------|----------------------------------|
---------------------------|----------------------------------|
--8--8--8--8--8--8--8--10--|--12--12--12--12--12--12--12--12--|
--8--8--8--8--8--8--8--10--|--12--12--12--12--12--12--12--12--|
--6--6--6--6--6--6--6---8--|--10--10--10--10--10--10--10--10--|
---------------------------|----------------------------------|

----------------------------------|----------------------------------|
----------------------------------|----------------------------------|
--12--12--12--12--12--12--12--11--|--10--10--10--10--10--10--10--10--|
--12--12--12--12--12--12--12--11--|--10--10--10--10--10--10--10--10--|
--10--10--10--10--10--10--10---9--|---8---8---8---8---8---8---8---8--|
----------------------------------|----------------------------------|
 
---------------------------------|--------------------------|
---------------------------------|--------------------------|
--10--10--10--10--10--10--10--8--|--5--5--5--5--5--5--5--5--|
--10--10--10--10--10--10--10--8--|--5--5--5--5--5--5--5--5--|
---8---8---8---8---8---8---8--6--|--3--3--3--3--3--3--3--3--|
---------------------------------|--------------------------|
 
--------------------------|--------------------------|
--------------------------|--------------------------|
--5--5--5--5--5--5--5--7--|--8-----8-----8-----8-----|
--5--5--5--5--5--5--5--7--|--8-----8-----8-----8-----|
--3--3--3--3--3--3--3--5--|--6-----6-----6-----6-----|
--------------------------|--------------------------|

--------------------------------------------------|
--(10)--(10)--(10)--(10)--(10)--(10)--(10)--(10)--|
---10----10----10----10----10----10----10----10---|
---10----10----10----10----10----10----10----10---|
----8-----8-----8-----8-----8-----8-----8-----8---|
--------------------------------------------------|

CHORUS:
-------------------------------------|-----------------------------|
--(12)----(12)----(12)---------------|-----------------------------|
---12------12------12---10--10---x---|-------------------------x---|
---12------12------12---10--10---x---|--10----10----10--8--8---x---|
---10------10------10----8---8--(8)--|--10----10----10--8--8---x---|
---------------------------------x---|---8-----8-----8--6--6--(6)--|

----------------------------------|-----------------------------------------|
--(8)----(8)----(8)---------------|--(10)----(10)----(10)--(10)--(10)-------|
---8------8------8------------x---|---10------10------10----10----10----x---|
---8------8------8---10--10---x---|---10------10------10----10----10----x---|
---6------6------6---10--10---x---|----8-------8-------8-----x-----x----x---|
----------------------8---8--(8)--|--------------------------8-----8---(8)--|

-------------------------------------|-----------------------------|
--(12)----(12)----(12)---------------|-----------------------------|
---12------12------12---10--10---x---|-------------------------x---|
---12------12------12---10--10---x---|--10----10----10--8--8---x---|
---10------10------10----8---8--(8)--|--10----10----10--8--8---x---|
---------------------------------x---|---8-----8-----8--6--6--(6)--|

----------------------------------|-----------------------------------------|
--(8)----(8)----(8)---------------|--(10)----(10)----(10)--(10)--(10)-------|
---8------8------8------------x---|---10------10------10----10----10----x---|
---8------8------8---10--10---x---|---10------10------10----10----10----x---|
---6------6------6---10--10---x---|----8-------8-------8-----x-----x----x---|
----------------------8---8--(8)--|--------------------------8-----8---(8)--|

--------------------------|------------------------|------------------------|
--------------------------|------------------------|------------------------|
--12----12----10----10----|------------------------|--8----8----------------|
--12----12----10----10----|--10----10----8----8----|--8----8----10----10----|
--10----10-----8-----8----|--10----10----8----8----|--6----6----10----10----|
--------------------------|---8-----8----6----6----|-------------8-----8----|
 
---------------------------|--------------------------|------------------------|
---------------------------|--------------------------|------------------------|
--10----10----L--10--10----|--12----12----10----10----|------------------------|
--10----10----L--10--10----|--12----12----10----10----|--10----10----8----8----|
---8-----8----L---8---8----|--10----10-----8-----8----|--10----10----8----8----|
---------------------------|--------------------------|---8-----8----6----6----|

------------------------|--------------------------|---------------------|
------------------------|--------------------------|---------------------|
--8----8----------------|--10----10----10----10----|---------------------|
--8----8----10----10----|--10----10----10----10----|---------------------|
--6----6----10----10----|---8-----8-----8-----8----|----------------3----|
-------------8-----8----|--------------------------|--3------6-----------|

VERSE:
------------------------|--------------------|---------------|
------------------------|--------------------|---------------|
------------------------|--------------------|---------------|
------------3--5--5--3--|--5-----------------|---------------|
--L--5------------------|--------------------|---------------|
------------------------|--------------------|---------------|

--------------------------|--------------------------|
--------------------------|--------------------------|
--5--5--5--5--5--5--5--5--|--8--8--8--8--8--8--8--8--|
--5--5--5--5--5--5--5--5--|--8--8--8--8--8--8--8--8--|
--3--3--3--3--3--3--3--3--|--6--6--6--6--6--6--6--6--|
--------------------------|--------------------------|

--------------------------------------------------|
--------------------------------------------------|
--(12)--(12)--(12)--(12)--(12)--(12)--(12)--(12)--|
--(12)--(12)--(12)--(12)--(12)--(12)--(12)--(12)--|
--(10)--(10)--(10)--(10)--(10)--(10)--(10)--(10)--|
--------------------------------------------------|
 
--------------------------------------------------|--------------------------|
--------------------------------------------------|--------------------------|
--(12)--(12)--(12)--(12)--(12)--(12)--(12)--(12)--|--5--5--5--5--5--5--5--5--|
--(12)--(12)--(12)--(12)--(12)--(12)--(12)--(12)--|--5--5--5--5--5--5--5--5--|
--(10)--(10)--(10)--(10)--(10)--(10)--(10)--(10)--|--3--3--3--3--3--3--3--3--|
--------------------------------------------------|--------------------------|

PRECHORUS:
--------------------------|--------------------------|
--------------------------|--------------------------|
--8--8--8--8--8--8--8--7--|--5--5--5--5--5--5--5--5--|
--8--8--8--8--8--8--8--7--|--5--5--5--5--5--5--5--5--|
--6--6--6--6--6--6--6--5--|--3--3--3--3--3--3--3--3--|
--------------------------|--------------------------|

--------------------------|--------------------------|
--------------------------|--------------------------|
--5--5--5--5--5--5--5--7--|--8--8--8--8--8--8--8--8--|
--5--5--5--5--5--5--5--7--|--8--8--8--8--8--8--8--8--|
--3--3--3--3--3--3--3--5--|--6--6--6--6--6--6--6--6--|
--------------------------|--------------------------|

---------------------------|----------------------------------|
---------------------------|----------------------------------|
--8--8--8--8--8--8--8--10--|--12--12--12--12--12--12--12--12--|
--8--8--8--8--8--8--8--10--|--12--12--12--12--12--12--12--12--|
--6--6--6--6--6--6--6---8--|--10--10--10--10--10--10--10--10--|
---------------------------|----------------------------------|

----------------------------------|----------------------------------|
----------------------------------|----------------------------------|
--12--12--12--12--12--12--12--11--|--10--10--10--10--10--10--10--10--|
--12--12--12--12--12--12--12--11--|--10--10--10--10--10--10--10--10--|
--10--10--10--10--10--10--10---9--|---8---8---8---8---8---8---8---8--|
----------------------------------|----------------------------------|
 
---------------------------------|--------------------------|
---------------------------------|--------------------------|
--10--10--10--10--10--10--10--8--|--5--5--5--5--5--5--5--5--|
--10--10--10--10--10--10--10--8--|--5--5--5--5--5--5--5--5--|
---8---8---8---8---8---8---8--6--|--3--3--3--3--3--3--3--3--|
---------------------------------|--------------------------|

--------------------------|--------------------------|
--------------------------|--------------------------|
--5--5--5--5--5--5--5--7--|--8-----8-----8-----8-----|
--5--5--5--5--5--5--5--7--|--8-----8-----8-----8-----|
--3--3--3--3--3--3--3--5--|--6-----6-----6-----6-----|
--------------------------|--------------------------|
  
--------------------------------------------------|
--(10)--(10)--(10)--(10)--(10)--(10)--(10)--(10)--|
---10----10----10----10----10----10----10----10---|
---10----10----10----10----10----10----10----10---|
----8-----8-----8-----8-----8-----8-----8-----8---|
--------------------------------------------------|

CHORUS:
-------------------------------------|-----------------------------|
--(12)----(12)----(12)---------------|-----------------------------|
---12------12------12---10--10---x---|-------------------------x---|
---12------12------12---10--10---x---|--10----10----10--8--8---x---|
---10------10------10----8---8--(8)--|--10----10----10--8--8---x---|
---------------------------------x---|---8-----8-----8--6--6--(6)--|

----------------------------------|-----------------------------------------|
--(8)----(8)----(8)---------------|--(10)----(10)----(10)--(10)--(10)-------|
---8------8------8------------x---|---10------10------10----10----10----x---|
---8------8------8---10--10---x---|---10------10------10----10----10----x---|
---6------6------6---10--10---x---|----8-------8-------8-----x-----x----x---|
----------------------8---8--(8)--|--------------------------8-----8---(8)--|
  
-------------------------------------|-----------------------------|
--(12)----(12)----(12)---------------|-----------------------------|
---12------12------12---10--10---x---|-------------------------x---|
---12------12------12---10--10---x---|--10----10----10--8--8---x---|
---10------10------10----8---8--(8)--|--10----10----10--8--8---x---|
---------------------------------x---|---8-----8-----8--6--6--(6)--|

----------------------------------|-----------------------------------------|
--(8)----(8)----(8)---------------|--(10)----(10)----(10)--(10)--(10)-------|
---8------8------8------------x---|---10------10------10----10----10----x---|
---8------8------8---10--10---x---|---10------10------10----10----10----x---|
---6------6------6---10--10---x---|----8-------8-------8-----x-----x----x---|
----------------------8---8--(8)--|--------------------------8-----8---(8)--|

--------------------------|------------------------|------------------------|
--------------------------|------------------------|------------------------|
--12----12----10----10----|------------------------|--8----8----------------|
--12----12----10----10----|--10----10----8----8----|--8----8----10----10----|
--10----10-----8-----8----|--10----10----8----8----|--6----6----10----10----|
--------------------------|---8-----8----6----6----|-------------8-----8----|

---------------------------|--------------------------|------------------------|
---------------------------|--------------------------|------------------------|
--10----10----L--10--10----|--12----12----10----10----|------------------------|
--10----10----L--10--10----|--12----12----10----10----|--10----10----8----8----|
---8-----8----L---8---8----|--10----10-----8-----8----|--10----10----8----8----|
---------------------------|--------------------------|---8-----8----6----6----|

------------------------|--------------------------|---------------------|
------------------------|--------------------------|---------------------|
--8----8----------------|--10----10----10----10----|---------------------|
--8----8----10----10----|--10----10----10----10----|---------------------|
--6----6----10----10----|---8-----8-----8-----8----|----------------3----|
-------------8-----8----|--------------------------|--3------6-----------|

------------------------|---------------------|------------------------|
------------------------|---------------------|------------------------|
------------------------|---------------------|------------------------|
------------3--5--5--3--|---------------------|------------3--5--5--3--|
--L--5------------------|----------------3----|--L--5------------------|
------------------------|--3------6-----------|------------------------|
 
---------------------|---------------------|---------------------|
---------------------|---------------------|---------------------|
---------------------|---------------------|---------------------|
--5------4------3----|--L--2--------L------|--5------4------3----|
---------------------|---------------------|---------------------|
---------------------|---------------------|---------------------|

BRIDGE:
----------------------|-------------------|-------------------|
----------------------|-------------------|-------------------|
----------------------|-------------------|-------------------|
--L--2----------------|-------------------|-------------------|
------------3----1----|-------------------|-------------------|
----------------------|--3----------------|--L----------------|

CHORUS:
-------------------|-------------------|-------------------------------------|
-------------------|-------------------|--(12)----(12)----(12)---------------|
-------------------|-------------------|---12------12------12---10--10---x---|
-------------------|-------------------|---12------12------12---10--10---x---|
-------------------|-------------------|---10------10------10----8---8--(8)--|
--3----------------|--L----------------|---------------------------------x---|

-----------------------------|----------------------------------|
-----------------------------|--(8)----(8)----(8)---------------|
-------------------------x---|---8------8------8------------x---|
--10----10----10--8--8---x---|---8------8------8---10--10---x---|
--10----10----10--8--8---x---|---6------6------6---10--10---x---|
---8-----8-----8--6--6--(6)--|----------------------8---8--(8)--|
  
-----------------------------------------|-------------------------------------|
--(10)----(10)----(10)--(10)--(10)-------|--(12)----(12)----(12)---------------|
---10------10------10----10----10----x---|---12------12------12---10--10---x---|
---10------10------10----10----10----x---|---12------12------12---10--10---x---|
----8-------8-------8-----x-----x----x---|---10------10------10----8---8--(8)--|
--------------------------8-----8---(8)--|---------------------------------x---|
 
-----------------------------|----------------------------------|
-----------------------------|--(8)----(8)----(8)---------------|
-------------------------x---|---8------8------8------------x---|
--10----10----10--8--8---x---|---8------8------8---10--10---x---|
--10----10----10--8--8---x---|---6------6------6---10--10---x---|
---8-----8-----8--6--6--(6)--|----------------------8---8--(8)--|
 
-----------------------------------------|-------------------------------------|
--(10)----(10)----(10)--(10)--(10)-------|--(12)----(12)----(12)---------------|
---10------10------10----10----10----x---|---12------12------12---10--10---x---|
---10------10------10----10----10----x---|---12------12------12---10--10---x---|
----8-------8-------8-----x-----x----x---|---10------10------10----8---8--(8)--|
--------------------------8-----8---(8)--|---------------------------------x---|

-----------------------------|----------------------------------|
-----------------------------|--(8)----(8)----(8)---------------|
-------------------------x---|---8------8------8------------x---|
--10----10----10--8--8---x---|---8------8------8---10--10---x---|
--10----10----10--8--8---x---|---6------6------6---10--10---x---|
---8-----8-----8--6--6--(6)--|----------------------8---8--(8)--|

-----------------------------------------|-------------------------------------|
--(10)----(10)----(10)--(10)--(10)-------|--(12)----(12)----(12)---------------|
---10------10------10----10----10----x---|---12------12------12---10--10---x---|
---10------10------10----10----10----x---|---12------12------12---10--10---x---|
----8-------8-------8-----x-----x----x---|---10------10------10----8---8--(8)--|
--------------------------8-----8---(8)--|---------------------------------x---|

-----------------------------|----------------------------------|
-----------------------------|--(8)----(8)----(8)---------------|
-------------------------x---|---8------8------8------------x---|
--10----10----10--8--8---x---|---8------8------8---10--10---x---|
--10----10----10--8--8---x---|---6------6------6---10--10---x---|
---8-----8-----8--6--6--(6)--|----------------------8---8--(8)--|

-----------------------------------------|--------------------------|
--(10)----(10)----(10)--(10)--(10)-------|--------------------------|
---10------10------10----10----10----x---|--12----12----10----10----|
---10------10------10----10----10----x---|--12----12----10----10----|
----8-------8-------8-----x-----x----x---|--10----10-----8-----8----|
--------------------------8-----8---(8)--|--------------------------|

------------------------|------------------------|---------------------------|
------------------------|------------------------|---------------------------|
------------------------|--8----8----------------|--10----10----L--10--10----|
--10----10----8----8----|--8----8----10----10----|--10----10----L--10--10----|
--10----10----8----8----|--6----6----10----10----|---8-----8----L---8---8----|
---8-----8----6----6----|-------------8-----8----|---------------------------|

OUTRO:
--------------------------|------------------------|--------------------------|
--------------------------|------------------------|--------------------------|
--12----12----10----10----|------------------------|--8--8--8--8--8--8--8--8--|
--12----12----10----10----|--10----10----8----8----|--8--8--8--8--8--8--8--8--|
--10----10-----8-----8----|--10----10----8----8----|--6--6--6--6--6--6--6--6--|
--------------------------|---8-----8----6----6----|--------------------------|

--------------------------|----------------------------------|
--------------------------|----------------------------------|
--8--8--8--8--8--8--8--8--|--10--10--10--10--10--10--10--10--|
--8--8--8--8--8--8--8--8--|--10--10--10--10--10--10--10--10--|
--6--6--6--6--6--6--6--6--|---8---8---8---8---8---8---8---8--|
--------------------------|----------------------------------|

----------------------------------|--------------------------|
----------------------------------|--------------------------|
--10--10--10--10--10--10--10--10--|--8--8--8--8--8--8--8--8--|
--10--10--10--10--10--10--10--10--|--8--8--8--8--8--8--8--8--|
---8---8---8---8---8---8---8---8--|--6--6--6--6--6--6--6--6--|
----------------------------------|--------------------------|

--------------------------|----------------------------------|
--------------------------|----------------------------------|
--8--8--8--8--8--8--8--8--|--10--10--10--10--10--10--10--10--|
--8--8--8--8--8--8--8--8--|--10--10--10--10--10--10--10--10--|
--6--6--6--6--6--6--6--6--|---8---8---8---8---8---8---8---8--|
--------------------------|----------------------------------|
          
----------------------------------|----------------------||
----------------------------------|--(12)----------------||
--10--10--10--10--10--10--10--10--|---12-----------------||
--10--10--10--10--10--10--10--10--|---12-----------------||
---8---8---8---8---8---8---8---8--|---10-----------------||
----------------------------------|----------------------||
Добавлено: 04.04.2015
Другие материалы по этой песне:

Страница создана 08.06.2012
http://primanota.ru/my-chemical-romance/death-before-disco-chords.htm
Привет, Гость.
Предлагаем пройти революционный курс по гитаре.
Подарок от PrimaNota.Ru, забирай!