PrimaNota.ru - самый крупный в мире бесплатный архив песенных текстов, аккордов, табулатур и нот


Muse - Stockholm Syndrome Live - таба, видео

Регистрация Запомнить меня
Войти через:  Facebook Google Twitter Vk Yandex Mail.ru

Muse - Stockholm Syndrome Live - таба, видео

Печатать
Просмотров: 238
Intro
  Q=138
  D
 4/4
  Gtr I
|------------------------------------------|
|------------------------------------------|
|------------------------------------------|
|------------------------------------------|
|------------------------------------------|
|-12-0-13-0-12-0-10-12-0-0-13-0-12-0-10-12-|


  D
                                      ~~
|------------------------------------------|
|------------------------------------------|
|------------------------------------------|
|------------------------------------------|
|------------------------------------------|
|-0-0-13-0-12-0-10-12-0-0-13-0-16h17p16-0--|


  D
|------------------------------------------|
|------------------------------------------|
|------------------------------------------|
|------------------------------------------|
|------------------------------------------|
|-12-0-13-0-12-0-10-12-0-0-13-0-12-0-10-12-|


  D
|-----------------------------------------------------------------|
|-----------------------------------------------------------------|
|-----------------------------------------------------------------|
|-----------------------------------------------------------------|
|-----------------------------------------------------------------|
|-0-0-[10]-[10]-[10]-[10]-[10]-[10]-[10]-[10]-[10]-[10]-[10]-[10]-|


    D
||-------------------------------------------|
||o------------------------------------------|
||-------------------------------------------|
||-------------------------------------------|
||o------------------------------------------|
||--12-0-13-0-12-0-10-12-0-0-13-0-12-0-10-12-|


  D
                                      ~~
                                            4x
|-------------------------------------------||
|------------------------------------------o||
|-------------------------------------------||
|-------------------------------------------||
|------------------------------------------o||
|-0-0-13-0-12-0-10-12-0-0-13-0-16h17p16-0---||


   Verse
    $
    Dm                                C
||----------------------------------|----------------------------------|
||o-6-6-6-6-6-6-6-6-6-6-6-6-6-6-6-6-|-5-5-5-5-5-5-5-5-5-5-5-5-5-5-5-5--|
||--7-7-7-7-7-7-7-7-7-7-7-7-7-7-7-7-|-5-5-5-5-5-5-5-5-5-5-5-5-5-5-5-5--|
||--x-x-x-x-x-x-x-x-x-x-x-x-x-x-x-x-|-x-x-x-x-x-x-x-x-x-x-x-x-x-x-x-x--|
||o-5-5-5-5-5-5-5-5-5-5-5-5-5-5-5-5-|-3-3-3-3-3-3-3-3-3-3-3-3-3-3-3-3--|
||----------------------------------|----------------------------------|


  Bm                                Bb
|---------------------------------|---------------------------------|
|-3-3-3-3-3-3-3-3-3-3-3-3-3-3-3-3-|-3-3-3-3-3-3-3-3-3-3-3-3-3-3-3-3-|
|-4-4-4-4-4-4-4-4-4-4-4-4-4-4-4-4-|-3-3-3-3-3-3-3-3-3-3-3-3-3-3-3-3-|
|-x-x-x-x-x-x-x-x-x-x-x-x-x-x-x-x-|-x-x-x-x-x-x-x-x-x-x-x-x-x-x-x-x-|
|-2-2-2-2-2-2-2-2-2-2-2-2-2-2-2-2-|-1-1-1-1-1-1-1-1-1-1-1-1-1-1-1-1-|
|---------------------------------|---------------------------------|


  Dm                                C#m
|---------------------------------|---------------------------------|
|-6-6-6-6-6-6-6-6-6-6-6-6-6-6-6-6-|-5-5-5-5-5-5-5-5-5-5-5-5-5-5-5-5-|
|-7-7-7-7-7-7-7-7-7-7-7-7-7-7-7-7-|-6-6-6-6-6-6-6-6-6-6-6-6-6-6-6-6-|
|-x-x-x-x-x-x-x-x-x-x-x-x-x-x-x-x-|-x-x-x-x-x-x-x-x-x-x-x-x-x-x-x-x-|
|-5-5-5-5-5-5-5-5-5-5-5-5-5-5-5-5-|-4-4-4-4-4-4-4-4-4-4-4-4-4-4-4-4-|
|---------------------------------|---------------------------------|


  C                                 Dm
|---------------------------------|---------------------------------|
|-5-5-5-5-5-5-5-5-5-5-5-5-5-5-5-5-|-6-6-6-6-6-6-6-6-6-6-6-6-6-6-6-6-|
|-5-5-5-5-5-5-5-5-5-5-5-5-5-5-5-5-|-7-7-7-7-7-7-7-7-7-7-7-7-7-7-7-7-|
|-x-x-x-x-x-x-x-x-x-x-x-x-x-x-x-x-|-x-x-x-x-x-x-x-x-x-x-x-x-x-x-x-x-|
|-3-3-3-3-3-3-3-3-3-3-3-3-3-3-3-3-|-5-5-5-5-5-5-5-5-5-5-5-5-5-5-5-5-|
|---------------------------------|---------------------------------|


  Gm
|-------------------------------------------------|
|-11-11-11-11-11-11-11-11-11-11-11-11-11-11-11-11-|
|-12-12-12-12-12-12-12-12-12-12-12-12-12-12-12-12-|
|--x--x--x--x--x--x--x--x--x--x--x--x--x--x--x--x-|
|-10-10-10-10-10-10-10-10-10-10-10-10-10-10-10-10-|
|-------------------------------------------------|


  F
|-------------------------------------------------|
|-10-10-10-10-10-10-10-10-10-10-10-10-10-10-10-10-|
|-10-10-10-10-10-10-10-10-10-10-10-10-10-10-10-10-|
|--x--x--x--x--x--x--x--x--x--x--x--x--x--x--x--x-|
|--8--8--8--8--8--8--8--8--8--8--8--8--8--8--8--8-|
|-------------------------------------------------|


  Em                                Eb
|---------------------------------|---------------------------------|
|-8-8-8-8-8-8-8-8-8-8-8-8-8-8-8-8-|-8-8-8-8-8-8-8-8-8-8-8-8-8-8-8-8-|
|-9-9-9-9-9-9-9-9-9-9-9-9-9-9-9-9-|-8-8-8-8-8-8-8-8-8-8-8-8-8-8-8-8-|
|-x-x-x-x-x-x-x-x-x-x-x-x-x-x-x-x-|-x-x-x-x-x-x-x-x-x-x-x-x-x-x-x-x-|
|-7-7-7-7-7-7-7-7-7-7-7-7-7-7-7-7-|-6-6-6-6-6-6-6-6-6-6-6-6-6-6-6-6-|
|---------------------------------|---------------------------------|


                                                             To Coda
  Em
|---------------------------------|-----------------------------------|
|-8-8-8-8-8-8-8-8-8-8-8-8-8-8-8-8-|-8-8-8-8-8-8-8-8-8-8-8-8-8-8-8-8---|
|-9-9-9-9-9-9-9-9-9-9-9-9-9-9-9-9-|-9-9-9-9-9-9-9-9-9-9-9-9-9-9-9-9---|
|-x-x-x-x-x-x-x-x-x-x-x-x-x-x-x-x-|-x-x-x-x-x-x-x-x-x-x-x-x-x-x-x-x---|
|-7-7-7-7-7-7-7-7-7-7-7-7-7-7-7-7-|-7-7-7-7-7-7-7-7-7-7-7-7-7-7-7-7---|
|---------------------------------|-----------------------------------|


  1.
  A5/E
|-------------------------------------------------|
|-10-10-10-10-10-10-10-10-10-10-10-10-10-10-10-10-|
|--9--9--9--9--9--9--9--9--9--9--9--9--9--9--9--9-|
|--x--x--x--x--x--x--x--x--x--x--x--x--x--x--x--x-|
|--7--7--7--7--7--7--7--7--7--7--7--7--7--7--7--7-|
|-------------------------------------------------|


|--------------------------------------------------||
|-10-10-10-10-10-10-10-10-10-10-10-10-10-10-10-10-o||
|--9--9--9--9--9--9--9--9--9--9--9--9--9--9--9--9--||
|--x--x--x--x--x--x--x--x--x--x--x--x--x--x--x--x--||
|--7--7--7--7--7--7--7--7--7--7--7--7--7--7--7--7-o||
|--------------------------------------------------||


  2.
  A5/E
|-------------------------------------------------|
|-10-10-10-10-10-10-10-10-10-10-10-10-10-10-10-10-|
|--9--9--9--9--9--9--9--9--9--9--9--9--9--9--9--9-|
|--x--x--x--x--x--x--x--x--x--x--x--x--x--x--x--x-|
|--7--7--7--7--7--7--7--7--7--7--7--7--7--7--7--7-|
|-------------------------------------------------|


                          G5 F#5
|-------------------------------|
|-10-10-10-10-10-10-10-10-------|
|--9--9--9--9--9--9--9--9-------|
|--x--x--x--x--x--x--x--x-5--4--|
|--7--7--7--7--7--7--7--7-5--4--|
|-------------------------5--4--|


 Pre-Chorus
  $$
  F5
|-----------------|-----------------|-----------------|-----------------|
|-----------------|-----------------|-----------------|-----------------|
|-----------------|-----------------|-----------------|-----------------|
|-3-3-3-3-3-3-3-3-|-3-3-3-3-3-3-3-3-|-3-3-3-3-3-3-3-3-|-3-3-3-3-3-3-3-3-|
|-3-3-3-3-3-3-3-3-|-3-3-3-3-3-3-3-3-|-3-3-3-3-3-3-3-3-|-3-3-3-3-3-3-3-3-|
|-3-3-3-3-3-3-3-3-|-3-3-3-3-3-3-3-3-|-3-3-3-3-3-3-3-3-|-3-3-3-3-3-3-3-3-|


   Chorus
    F5
||------------------|-----------------|
||o-6-6-6-6-6-6-6-6-|-6-6-6-6-6-6-6-6-|
||--5-5-5-5-5-5-5-5-|-5-5-5-5-5-5-5-5-|
||--3-3-3-3-3-3-3-3-|-3-3-3-3-3-3-3-3-|
||o-3-3-3-3-3-3-3-3-|-3-3-3-3-3-3-3-3-|
||--3-3-3-3-3-3-3-3-|-3-3-3-3-3-3-3-3-|


  A5
|-------------------------|--------------------------|
|-10-10-10-10-10-10-10-10-|-10-10-10-10-10-10-10-10--|
|--9--9--9--9--9--9--9--9-|--9--9--9--9--9--9--9--9--|
|--7--7--7--7--7--7--7--7-|--7--7--7--7--7--7--7--7--|
|--7--7--7--7--7--7--7--7-|--7--7--7--7--7--7--7--7--|
|--7--7--7--7--7--7--7--7-|--7--7--7--7--7--7--7--7--|


  1.
  G5
|-----------------|-----------------|-----------------|------------------||
|-8-8-8-8-8-8-8-8-|-8-8-8-8-8-8-8-8-|-8-8-8-8-8-8-8-8-|-8-8-8-8-8-8-8-8-o||
|-7-7-7-7-7-7-7-7-|-7-7-7-7-7-7-7-7-|-7-7-7-7-7-7-7-7-|-7-7-7-7-7-7-7-7--||
|-5-5-5-5-5-5-5-5-|-5-5-5-5-5-5-5-5-|-5-5-5-5-5-5-5-5-|-5-5-5-5-5-5-5-5--||
|-5-5-5-5-5-5-5-5-|-5-5-5-5-5-5-5-5-|-5-5-5-5-5-5-5-5-|-5-5-5-5-5-5-5-5-o||
|-5-5-5-5-5-5-5-5-|-5-5-5-5-5-5-5-5-|-5-5-5-5-5-5-5-5-|-5-5-5-5-5-5-5-5--||


  2.
  G5
|-----------------|-----------------|
|-8-8-8-8-8-8-8-8-|-8-8-8-8-8-8-8-8-|
|-7-7-7-7-7-7-7-7-|-7-7-7-7-7-7-7-7-|
|-5-5-5-5-5-5-5-5-|-5-5-5-5-5-5-5-5-|
|-5-5-5-5-5-5-5-5-|-5-5-5-5-5-5-5-5-|
|-5-5-5-5-5-5-5-5-|-5-5-5-5-5-5-5-5-|


  Bb5
|-------------------------|-------------------------|
|-11-11-11-11-11-11-11-11-|-11-11-11-11-11-11-11-11-|
|-10-10-10-10-10-10-10-10-|-10-10-10-10-10-10-10-10-|
|--8--8--8--8--8--8--8--8-|--8--8--8--8--8--8--8--8-|
|--8--8--8--8--8--8--8--8-|--8--8--8--8--8--8--8--8-|
|--8--8--8--8--8--8--8--8-|--8--8--8--8--8--8--8--8-|


                                                             To Dbl. Coda
  F5              G#5               A5              C5          C#5
|---------------------------------|-----------------------------------------|
|---------------------------------|-----------------------------------------|
|---------------------------------|-----------------------------------------|
|-3-3-3-3-3-3-3-3-6-6-6-6-6-6-6-6-|-7-7-7-7-7-7-7-7-10-10-10-10-11-11-11-11-|
|-3-3-3-3-3-3-3-3-6-6-6-6-6-6-6-6-|-7-7-7-7-7-7-7-7-10-10-10-10-11-11-11-11-|
|-3-3-3-3-3-3-3-3-6-6-6-6-6-6-6-6-|-7-7-7-7-7-7-7-7-10-10-10-10-11-11-11-11-|


  D
|------------------------------------------|
|------------------------------------------|
|------------------------------------------|
|------------------------------------------|
|------------------------------------------|
|-12-0-13-0-12-0-10-12-0-0-13-0-12-0-10-12-|


                                               D.S. al Coda
  C
|-----------------------------------------------------------|
|-----------------------------------------------------------|
|-----------------------------------------------------------|
|-----------------------------------------------------------|
|-----------------------------------------------------------|
|-[x]-[10]-[x]-[10]-[x]-[10]-[10]-[10]-[10]-[10]-[10]-[10]--|


 Second Verse End
  &
  A5/E
|-------------------------------------------------|
|-10-10-10-10-10-10-10-10-10-10-10-10-10-10-10-10-|
|--9--9--9--9--9--9--9--9--9--9--9--9--9--9--9--9-|
|--x--x--x--x--x--x--x--x--x--x--x--x--x--x--x--x-|
|--7--7--7--7--7--7--7--7--7--7--7--7--7--7--7--7-|
|-------------------------------------------------|


            D.S.S. al Dbl. Coda
                          G5 F#5
|-------------------------------|
|-10-10-10-10-10-10-10-10-------|
|--9--9--9--9--9--9--9--9-------|
|--x--x--x--x--x--x--x--x-5--4--|
|--7--7--7--7--7--7--7--7-5--4--|
|-------------------------5--4--|


 Bridge
  &&
  D
|------------------------------------------|
|------------------------------------------|
|------------------------------------------|
|------------------------------------------|
|------------------------------------------|
|-12-0-13-0-12-0-10-12-0-0-13-0-12-0-10-12-|


  D
                                       ~~
|------------------------------------------|
|------------------------------------------|
|------------------------------------------|
|------------------------------------------|
|------------------------------------------|
|-0-0-13-0-12-0-10-12-12-0-13-0-16h17p16-0-|


  D
|-------------------------------------------|
|-------------------------------------------|
|-------------------------------------------|
|-------------------------------------------|
|-------------------------------------------|
|-12-0-13-0-12-0-10-12-12-0-13-0-12-0-10-12-|


  C
|----------------------------------------------------------|
|----------------------------------------------------------|
|----------------------------------------------------------|
|----------------------------------------------------------|
|----------------------------------------------------------|
|-[x]-[10]-[x]-[10]-[x]-[10]-[10]-[10]-[10]-[10]-[10]-[10]-|


    D
||-------------------------------------------|
||o------------------------------------------|
||-------------------------------------------|
||-------------------------------------------|
||o------------------------------------------|
||--12-0-13-0-12-0-10-12-0-0-13-0-12-0-10-12-|


  D
                                            4x
|-------------------------------------------||
|------------------------------------------o||
|-------------------------------------------||
|-------------------------------------------||
|------------------------------------------o||
|-0-0-13-0-12-0-10-12-0-0-13-0-12-0-10-12---||


 Guitar Solo
  Bb                                A
|---------------------------------|---------------------------------|
|---------------------------------|---------------------------------|
|---------------------------------|---------------------------------|
|-8-8-5-5-0-0-8-8-5-5-0-0-8-8-5-5-|-7-7-3-3-0-0-7-7-3-3-0-0-7-7-3-3-|
|---------------------------------|---------------------------------|
|---------------------------------|---------------------------------|


  G                                 G
|---------------------------------|---------------------------------|
|---------------------------------|---------------------------------|
|---------------------------------|---------------------------------|
|-5-5-2-2-0-0-5-5-2-2-0-0-5-5-2-2-|-5-5-1-1-0-0-5-5-1-1-0-0-5-5-1-1-|
|---------------------------------|---------------------------------|
|---------------------------------|---------------------------------|


  A                                 A
|---------------------------------|---------------------------------|
|---------------------------------|---------------------------------|
|---------------------------------|---------------------------------|
|-7-0-8-0-7-0-5-7-0-0-8-0-7-0-5-7-|-0-0-8-0-7-0-5-7-0-0-8-0-7-0-5-7-|
|---------------------------------|---------------------------------|
|---------------------------------|---------------------------------|


  A                                                 G5 F#5
|---------------------------------|-----------------------|
|---------------------------------|-----------------------|
|---------------------------------|-----------------------|
|-0-0-8-0-7-0-5-7-0-0-8-0-7-0-5-7-|-----------------5--4--|
|---------------------------------|-----------------5--4--|
|---------------------------------|--[10]-[10]-[10]-5--4--|


   Chorus
    F5
||------------------|-----------------|
||o-6-6-6-6-6-6-6-6-|-6-6-6-6-6-6-6-6-|
||--5-5-5-5-5-5-5-5-|-5-5-5-5-5-5-5-5-|
||--3-3-3-3-3-3-3-3-|-3-3-3-3-3-3-3-3-|
||o-3-3-3-3-3-3-3-3-|-3-3-3-3-3-3-3-3-|
||--3-3-3-3-3-3-3-3-|-3-3-3-3-3-3-3-3-|


  A5
|-------------------------|--------------------------|
|-10-10-10-10-10-10-10-10-|-10-10-10-10-10-10-10-10--|
|--9--9--9--9--9--9--9--9-|--9--9--9--9--9--9--9--9--|
|--7--7--7--7--7--7--7--7-|--7--7--7--7--7--7--7--7--|
|--7--7--7--7--7--7--7--7-|--7--7--7--7--7--7--7--7--|
|--7--7--7--7--7--7--7--7-|--7--7--7--7--7--7--7--7--|


  1.
  G5
|-----------------|-----------------|-----------------|------------------||
|-8-8-8-8-8-8-8-8-|-8-8-8-8-8-8-8-8-|-8-8-8-8-8-8-8-8-|-8-8-8-8-8-8-8-8-o||
|-7-7-7-7-7-7-7-7-|-7-7-7-7-7-7-7-7-|-7-7-7-7-7-7-7-7-|-7-7-7-7-7-7-7-7--||
|-5-5-5-5-5-5-5-5-|-5-5-5-5-5-5-5-5-|-5-5-5-5-5-5-5-5-|-5-5-5-5-5-5-5-5--||
|-5-5-5-5-5-5-5-5-|-5-5-5-5-5-5-5-5-|-5-5-5-5-5-5-5-5-|-5-5-5-5-5-5-5-5-o||
|-5-5-5-5-5-5-5-5-|-5-5-5-5-5-5-5-5-|-5-5-5-5-5-5-5-5-|-5-5-5-5-5-5-5-5--||


  2.
  G5
|-----------------|-----------------|
|-8-8-8-8-8-8-8-8-|-8-8-8-8-8-8-8-8-|
|-7-7-7-7-7-7-7-7-|-7-7-7-7-7-7-7-7-|
|-5-5-5-5-5-5-5-5-|-5-5-5-5-5-5-5-5-|
|-5-5-5-5-5-5-5-5-|-5-5-5-5-5-5-5-5-|
|-5-5-5-5-5-5-5-5-|-5-5-5-5-5-5-5-5-|


  Bb5
|-------------------------|-------------------------|
|-11-11-11-11-11-11-11-11-|-11-11-11-11-11-11-11-11-|
|-10-10-10-10-10-10-10-10-|-10-10-10-10-10-10-10-10-|
|--8--8--8--8--8--8--8--8-|--8--8--8--8--8--8--8--8-|
|--8--8--8--8--8--8--8--8-|--8--8--8--8--8--8--8--8-|
|--8--8--8--8--8--8--8--8-|--8--8--8--8--8--8--8--8-|


    F5              G#5
||----------------------------------|
||o---------------------------------|
||----------------------------------|
||--3-3-3-3-3-3-3-3-6-6-6-6-6-6-6-6-|
||o-3-3-3-3-3-3-3-3-6-6-6-6-6-6-6-6-|
||--3-3-3-3-3-3-3-3-6-6-6-6-6-6-6-6-|


  A5              C5          C#5
|-------------------------------------------||
|------------------------------------------o||
|-------------------------------------------||
|-7-7-7-7-7-7-7-7-10-10-10-10-11-11-11-11---||
|-7-7-7-7-7-7-7-7-10-10-10-10-11-11-11-11--o||
|-7-7-7-7-7-7-7-7-10-10-10-10-11-11-11-11---||


 Outro
  D5  Eb5D5D5 D5C5 D5   D5  Eb5D5D5 D5C5 D5
|---------------------|---------------------|
|---------------------|---------------------|
|---------------------|---------------------|
|-0-0-13-0-12-0-10-12-|-0-0-13-0-12-0-10-12-|
|-0-0-13-0-12-0-10-12-|-0-0-13-0-12-0-10-12-|
|-0-0-13-0-12-0-10-12-|-0-0-13-0-12-0-10-12-|


  D5  Eb5D5D5 D5C5 D5   D5  Eb5D5D5
|---------------------|--------------------|
|---------------------|--------------------|
|---------------------|--------------------|
|-0-0-13-0-12-0-10-12-|-0-0-13-0-12--12--|
|-0-0-13-0-12-0-10-12-|-0-0-13-0-12--12--|
|-0-0-13-0-12-0-10-12-|-0-0-13-0-12--12--|


  D5  Eb5D5D5 D5C5 D5   D5  Eb5D5D5 D5C5 D5
|---------------------|---------------------|
|---------------------|---------------------|
|---------------------|---------------------|
|-0-0-13-0-12-0-10-12-|-0-0-13-0-12-0-10-12-|
|-0-0-13-0-12-0-10-12-|-0-0-13-0-12-0-10-12-|
|-0-0-13-0-12-0-10-12-|-0-0-13-0-12-0-10-12-|


  D5  Eb5D5D5 D5C5 D5   D5  Eb5D5D5 D5C5 D5
|---------------------|---------------------|
|---------------------|---------------------|
|---------------------|---------------------|
|-0-0-13-0-12-0-10-12-|-0-0-13-0-12-0-10-12-|
|-0-0-13-0-12-0-10-12-|-0-0-13-0-12-0-10-12-|
|-0-0-13-0-12-0-10-12-|-0-0-13-0-12-0-10-12-|


  D5
|----------|------------|------------|--------*|
|----------|------------|------------|--------*|
|----------|------------|------------|--------*|
|-0--------|-(0)--------|-(0)--------|-(0)----*|
|-0--------|-(0)--------|-(0)--------|-(0)----*|
|-0--------|-(0)--------|-(0)--------|-(0)----*|

Добавлено: 23.02.2012
Другие материалы по этой песне:

Страница создана 23.02.2012
http://primanota.ru/muse/stockholm-syndrome-live-chords.htm
Привет, Гость.
Предлагаем пройти революционный курс по гитаре.
Подарок от PrimaNota.Ru, забирай!