PrimaNota.ru - самый крупный в мире бесплатный архив песенных текстов, аккордов, табулатур и нот


Muse - Resistance (album) - таба, бас-таба, видео

Регистрация Запомнить меня
Войти через:  Facebook Google Twitter Vk Yandex Mail.ru

Muse - Resistance (album) - таба, бас-таба, видео

Печатать
Просмотров: 362
Уроки эстрадного вокала в Санкт-Петербурге
I put together all the songs on muse latest album (The Resistance) on the one tab
just to make live easier for yous lol

------------------------------------------------------------------------------
			    1. UPRISING
-------------------------------------------------------------------------------
INTRO Part 1

  Bass arr. for guitar
e|-----------------|-----------------|-----------------|-----------------|
B|-----------------|-----------------|-----------------|-----------------|
G|-----------------|-----------------|-----------------|-----------------|
D|-----------------|-----------------|-----------------|-----------------|
G|---7---7---7---7-|---7---7---7---7-|---7---7---7---7-|---7---7---7---7-|
D|-0---0---0---0---|-0---0---0---0---|-0---0---0---0---|-0---0---0---0---|

INTRO Part 2

e|-----------------|-----------------|-----------------|-----------------|
B|-----------------|-----------------|-----------------|-----------------|
G|-----------------|-----------------|-----------------|-----------------|
D|-----------------|-----------------|---5---5---5---5-|---3---3---3---3-|
G|---7---7---7---7-|---7---7---7---7-|-----------------|-----------------|
D|-0---0---0---0---|-0---0---0---0---|-5---5---5---5---|-3---3---3---3---|

Synth arr. for Guitar
e|-17--------------|-13--------------|-----------------|-----------------|
B|-----------------|-----------------|-----------------|-----------------|
G|-----------------|---------14------|-15---------17p15|-14--------------|
D|-----------------|-----------------|-----------------|-----------------|
G|-----------------|-----------------|-----------------|-----------------|
D|-----------------|-----------------|-----------------|-----------------|


e|-----------------|-----------------|-----------------|-----------------|
B|-----------------|-----------------|-----------------|-----------------|
G|-----------------|-----------------|-----------------|-----------6--6--|
D|---7---7---7---7-|---7---7---7---7-|---5---5---5---5-|---3---3---------|
G|-----------------|-----------------|-----------------|---------6---6---|
D|-7---7---7---7---|-7---7---7---7---|-5---5---5---5---|-3---3-----------|

e|-17-----12-------|-----------------|-18---------20p18|-17--------------|
B|-----------------|-14--------------|-----------------|-----------------|
G|-----------------|---------14------|-----------------|-----------------|
D|-----------------|-----------------|-----------------|-----------------|
G|-----------------|-----------------|-----------------|-----------------|
D|-----------------|-----------------|-----------------|-----------------|


e|-----------------|-----------------|-----------------|-----------------|
B|-----------------|-----------------|-----------------|-----------------|
G|-----------------|-----------------|-----------------|-----------------|
D|-----------------|-----------------|---5---5---5---5-|---3---3---6---6-|
G|---7---7---7---7-|---7---7---7---7-|-----------------|-----------------|
D|-0---0---0---0---|-0---0---0---0---|-5---5---5---5---|-3---3---6---6---|

e|-17--13----------|-----13--17------|-18---------17p15|-17--------------|
B|---------15------|-15----------15--|-----------------|-----------------|
G|-------------14--|-----------------|-----------------|-----------------|
D|-----------------|-----------------|-----------------|-----------------|
G|-----------------|-----------------|-----------------|-----------------|
D|-----------------|-----------------|-----------------|-----------------|


e|-----------------|-----------------|-----------------|-----------------|
B|-----------------|-----------------|-----------------|-----------------|
G|-----------------|-----------------|-----------------|-----------6--6--|
D|---7---7---7---7-|---7---7---7---7-|---5---5---5---5-|---3---3---------|
G|-----------------|-----------------|-----------------|---------6---6---|
D|-7---7---7---7---|-7---7---7---7---|-5---5---5---5---|-3---3-----------|

e|-17--12----------|-----12--17------|-15---------13p12|-13--------------|
B|---------14------|-14--------------|-----------------|-----------------|
G|-------------14--|-------------14--|-----------------|-----------------|
D|-----------------|-----------------|-----------------|-----------------|
G|-----------------|-----------------|-----------------|-----------------|
D|-----------------|-----------------|-----------------|-----------------|

Guitar With Distortion
e|-----------------|-----------------|-----------------|-----------------|
B|-----------------|-----------------|-----------------|----------15--15-|
G|-----------------|-----------------|-----------------|----------17b-17b|
D|-----------------|-----------------|-----------------|-----------------|
G|-----------------|-----------------|-----------------|-----------------|
D|-----------------|-----------------|-----------------|-----------------|


INTRO Part 3
e|-----------------|-----------------|-----------------|-----------------|
B|-----------------|-----------------|-----------------|-----------------|
G|-----------------|-----------------|-----------------|-----------------|
D|-----------------|-----------------|-----------------|-----------------|
G|---7---7---7---7-|---7---7---7---7-|---7---7---7---7-|---7---7---7---7-|
D|-0---0---0---0---|-0---0---0---0---|-0---0---0---0---|-0---0---0---0---|


VERSE

Bass continues playing 'INTRO Part 2'

Guitar x 2
Paranoia....
Another promise...
e|-----------------|-----------------|-----------------|-----------------|
B|-----------------|-----------------|-----------------|-----------------|
G|-----------------|-----------------|-----------------|-----------------|
D|-----------------|-----------------|-----------------|-----------------|
G|-----------------|-----------------|-----------------|-----------------|
D|-----------------|-----------------|-----------------|-----------------|

                                                            ...So Come on!
e|-----------------|-----------------|-----------------|-----------------|
B|-----------------|-----------------|-----------------|----------15--15-|
G|-----------------|-----------------|-----------------|----------17b-17b|
D|-----------------|-----------------|-----------------|-----------------|
G|-----------------|-----------------|-----------------|-----------------|
D|-----------------|-----------------|-----------------|-----------------|


CHORUS 1 - Repeat 'INTRO Part 2'


VERSE 2

Guitar enters as bass plays 'Intro Part 3'

Matt uses all Down-strums

e|-----------------|-----------------|-----------------|-----------------|
B|-----------------|-----------------|-----------------|-----------------|
G|-----------------|-----------------|-7-7-x-7-7-7-x-7-|-7-7-x-7-7-7-x-7-|
D|-----------------|-----------------|-----x-------x---|-----x-------x---|
G|-----------------|-----------------|-7-7-x-7-7-7-x-7-|-7-7-x-7-7-7-x-7-|
D|-----------------|-----------------|-----------------|-----------------|

       'Interchanging...'
e|-----------------|-----------------|-----------------|-----------------|
B|-----------------|-----------------|-----------------|-----------------|
G|-7-7-x-7-7-7-x-7-|-7-7-x-7-7-7-7-7-|-7-7-x-7-7-7-x-7-|-5-5-x-5-5-5-5-5-|
D|-----x-------x---|-----x-----------|-----x-------x---|-----x-----------|
G|-7-7-x-7-7-7-x-7-|-7-7-x-7-7-7-7-7-|-7-7-x-7-7-7-x-7-|-5-5-x-5-5-5-5-5-|
D|-----------------|-----------------|-----------------|-----------------|

e|-----------------|-----------------|-----------------|-------------------|
B|-----------------|-----------------|-----------------|-------------15-15-|
G|-6-6-x-6-6-6-x-6-|-6-6-x-6-6-6-6-6-|-7-7-x-7-7-7-x-7-|-7-7-x-7-7-7-17b17b|
D|-----x-------x---|-----x-----------|-----x-------x---|-----x-------------|
G|-6-6-x-6-6-6-x-6-|-6-6-x-6-6-6-6-6-|-7-7-x-7-7-7-x-7-|-7-7-x-7-7-7-------|
D|-----------------|-----------------|-----------------|-------------------|

e|-----------------|-----------------|-----------------|-----------------|
B|-----------------|-----------------|-----------------|-----------------|
G|-----x-7-7-7-x-7-|-7-7-x-7-7-7-7-7-|-7-7-x-7-7-7-x-7-|-5-5-x-5-5-5-5-5-|
D|-----x-------x---|-----x-----------|-----x-------x---|-----x-----------|
G|-----x-7-7-7-x-7-|-7-7-x-7-7-7-7-7-|-7-7-x-7-7-7-x-7-|-5-5-x-5-5-5-5-5-|
D|-----------------|-----------------|-----------------|-----------------|

e|-----------------|-----------------|-----------------|-------------------|
B|-----------------|-----------------|-----------------|-------------15-15-|
G|-6-6-x-6-6-6-x-6-|-6-6-x-6-6-6-6-6-|-7-7-x-7-7-7-x-7-|-7-7-x-7-7-7-17b17b|
D|-----x-------x---|-----x-----------|-----x-------x---|-----x-------------|
G|-6-6-x-6-6-6-x-6-|-6-6-x-6-6-6-6-6-|-7-7-x-7-7-7-x-7-|-7-7-x-7-7-7-------|
D|-----------------|-----------------|-----------------|-------------------|

e|-----------------|-----------------|-----------------|-----------------|
B|-----------------|-----------------|-----------------|-----------------|
G|-------7-7-7---7-|---7---7-7-7-----|-7-7---7-7-7---7-|---7---7-7-7-----|
D|-----------------|-----------------|-----------------|-----------------|
G|-------7-7-7---7-|---7---7-7-7-----|-7-7---7-7-7---7-|---7---7-7-7-----|
D|-----------------|-----------------|-----------------|-----------------|

CHORUS 2

Again all Down-strums

e|-5-5---5-5-5----5-|-5-5---5-5-5-5-5-|-----------------|-----------------|
B|-6-6---6-6-6----6-|-6-6---6-6-6-6-6-|-8-8---8-8-8-8-8-|-6-6---6-6-6-6-6-|
G|-7-7---7-7-7----7-|-7-7---7-7-7-7-7-|-7-7---7-7-7-7-7-|-5-5---5-5-5-5-5-|
D|-7-7---7-7-7----7-|-7-7---7-7-7-7-7-|-8-8---8-8-8-8-8-|-7-7---7-7-7-7-7-|
G|------------------|-----------------|-----------------|-----------------|
D|------------------|-----------------|-----------------|-----------------|

e|------------------|-----------------|-----------------|-----------------|
B|-5-5---5-5-5----5-|-5-5---5-5-5-5-5-|-8-8---8-8-8-8-8-|-6-6---x---------|
G|-6-6---6-6-6----6-|-6-6---6-6-6-6-6-|-7-7---7-7-7-7-7-|-5-5---x-6-6-6-6-|
D|-7-7---7-7-7----7-|-7-7---7-7-7-7-7-|-8-8---8-8-8-8-8-|-7-7---x-7-7-7-7-|
G|------------------|-----------------|-----------------|-----------------|
D|------------------|-----------------|-----------------|-----------------|

e|-5-5---5-5-5----5-|-5-5---5-5-5-5-5-|-----------------|-----------------|
B|-6-6---6-6-6----6-|-6-6---6-6-6-6-6-|-8-8---8-8-8-8-8-|-6-6---x-6-6-6-6-|
G|-7-7---7-7-7----7-|-7-7---7-7-7-7-7-|-7-7---7-7-7-7-7-|-5-5---x-7-7-7-7-|
D|-7-7---7-7-7----7-|-7-7---7-7-7-7-7-|-8-8---8-8-8-8-8-|-7-7---x-6-6-6-6-|
G|------------------|-----------------|-----------------|-----------------|
D|------------------|-----------------|-----------------|-----------------|

e|------------------|-----------------|-----------------|-------------------|
B|-5-5---5-5-5----5-|-5-5---5-5-5-5-5-|-8-8---8-8-8-8-8-|-6-6---x-----15-15-|
G|-6-6---6-6-6----6-|-6-6---6-6-6-6-6-|-7-7---7-7-7-7-7-|-5-5---x-6-6-17b17b|
D|-7-7---7-7-7----7-|-7-7---7-7-7-7-7-|-8-8---8-8-8-8-8-|-7-7---x-7-7-------|
G|------------------|-----------------|-----------------|-------------------|
D|------------------|-----------------|-----------------|-------------------|


Bass plays 'INTRO Part 3' before SOLO begins

SOLO x 3

Listen to the CD if you're unsure of timing

e|---------------------|---------------------|---------------------|---------------------|
B|---------------------|---------------------|---------------------|---------------------|
G|---------------------|---------------------|---------------------|---------------------|
D|---------------------|---------------------|---------------------|---------------------|
G|---------------5h6h7-|---------------5h6h7-|---------------5h6h7-|---------------5h6h7-|
D|-0---3---5h6h7-------|-0---3---5h6h7-------|-0---3---5h6h7-------|-0---3---5h6h7-------|

e|-------------------------|----------------------------|-----------------------|
B|----10----10----10----10-|----10----10----10----------|----11\10--11\10-----10|
G|-14----13----12----10----|----------------------------|-----------------------|
D|-------------------------|-14----12----11-------------|-----8\7----8\7-------7|
G|-------------------------|-------------------14\------|-----------------------|
D|-------------------------|----------------------------|-----------------------|

--------------------|
---10----8/10---15--|
----------------17b-|
---7-----5/7--------|
--------------------|
--------------------|

After the 3rd time
e|-----------------|-------------------------------------------------|
B|-15--15--15--15--|-15-15-15---15-15-15---15-15-15---15-15-15-------|
G|-17b-17b-17b-17b-|-17b17b17b--17b17b17b--17b17b17b--17b17b17b------|
D|-----------------|-------------------------------------------------|
G|-----------------|-------------------------------------------------|
D|-----------------|-------------------------------------------------|
                     [   3   ]  [   3   ]  [   3   ]  [   3   ]


CHORUS 3 - Repeat CHORUS 2


OUTRO

Part 1
e|-----------------|-----------------|
B|-----------------|-----------------|
G|-----------------|-----------------|
D|-----------------|-----------------|
G|---7---7---7---7-|---7---7---7---7-|
D|-0---0---0---0---|-0---0---0---0---|


OUTRO Part 2 - Synth Enters

e|-----------------|-----------------|-----------------|-----------------|
B|-----------------|-----------------|-----------------|-----------------|
G|-----------------|-----------------|-----------------|-----------------|
D|-----------------|-----------------|---5---5---5---5-|---3---3---6---6-|
G|---7---7---7---7-|---7---7---7---7-|-----------------|-----------------|
D|-0---0---0---0---|-0---0---0---0---|-5---5---5---5---|-3---3---6---6---|

Synth
e|-17--13----------|-----13--17------|-18---------17p15|-17--------------|
B|---------15------|-15----------15--|-----------------|-----------------|
G|-------------14--|-----------------|-----------------|-----------------|
D|-----------------|-----------------|-----------------|-----------------|
G|-----------------|-----------------|-----------------|-----------------|
D|-----------------|-----------------|-----------------|-----------------|

e|-----------------|-----------------|-----------------|-----------------|
B|-----------------|-----------------|-----------------|-----------------|
G|-----------------|-----------------|-----------------|-----------6--6--|
D|---7---7---7---7-|---7---7---7---7-|---5---5---5---5-|---3---3---------|
G|-----------------|-----------------|-----------------|---------6---6---|
D|-7---7---7---7---|-7---7---7---7---|-5---5---5---5---|-3---3-----------|

e|-17--12----------|-----12--17------|-15---------13p12|-13--------------|
B|---------14------|-14--------------|-----------------|-----------------|
G|-------------14--|-------------14--|-----------------|-----------------|
D|-----------------|-----------------|-----------------|-----------------|
G|-----------------|-----------------|-----------------|-----------------|
D|-----------------|-----------------|-----------------|-----------------|

Guitar
e|-----------------|-----------------|-----------------|-----------------|
B|-----------------|-----------------|-----------------|----------15--15-|
G|-----------------|-----------------|-----------------|----------17b-17b|
D|-----------------|-----------------|-----------------|-----------------|
G|-----------------|-----------------|-----------------|-----------------|
D|-----------------|-----------------|-----------------|-----------------|

OUTRO Part 3

e|-----------------|-----------------|-----------------|-----------------|
B|-----------------|-----------------|-----------------|-----------------|
G|-----------------|-----------------|-----------------|-----------------|
D|-----------------|-----------------|-----------------|-----------------|
G|---7---7---7---7-|---7---7---7---7-|---7---7---7---7-|---7---7---7---7-|
D|-0---0---0---0---|-0---0---0---0---|-0---0---0---0---|-0---0---0---0---|

e|-----------------|-----------------|-----------------|-----------------|
B|-----------------|-----------------|-----------------|-----------------|
G|-----------------|-----------------|-----------------|-----------------|
D|-----------------|-----------------|-----------------|-----------------|
G|-7\--------------|-----------------|-----------------|-----------------|
D|-----------------|-----------------|-----------------|-----------------|


INTRO
VERSE 1
CHORUS 1
VERSE 2
CHORUS 2
SOLO
CHORUS 3
OUTRO


------------------------------------------------------------------------------
			    2.RESISTANCE
-----------------------------------------------------------------------------

Tuning: Standard (EADGBe)

Intro (0:42 - 1:11)

e|---------------------------------------------------------------------------|
B|---------------------------------------------------------------------------|
G|--------7--------------------------------7--------7-9-10-9-7-9-------9-7---|
D|-7-9-10----10-9-10-7-----6-7-9-10--9-7-9-------10-------------10---------10|
A|---------------------------------------------------------------------------|
E|---------------------------------------------------------------------------|

e|---------------------------------------------------------------------------|
B|---------------------------------------------------------------------------|
G|---7-----------------------------------------------------------------------|
D|9---10-9-7---10p9-7--------------------------------------------------------|
A|---------------------------------------------------------------------------|
E|---------------------------------------------------------------------------|

e|---------------------------------------------------------------------------|
B|---------------------------------------------------------------------------|
G|--------7--------------------------------7--------7-9-10-9-7-9-------9-7---|
D|-7-9-10----10-9-10-7-----6-7-9-10--9-7-9-------10-------------10---------10|
A|---------------------------------------------------------------------------|
E|---------------------------------------------------------------------------|

e|---------------------------------------------------------------------------|
B|---------------------------------------------------------------------------|
G|---7-----------------------------------------------------------------------|
D|9---10-9-7---10p9-7--------------------------------------------------------|
A|---------------------------------------------------------------------------|
E|---------------------------------------------------------------------------|

This is the synthy/ambient part during the verse (1:14 - 1:39)

e|---------------------------------------------------------------------------|
B|---------------------------------------------------------------------------|
G|---------------------------------------------------------------------------|
D|-10------------9--------------7------------6-------------------------------|
A|---------------------------------------------------------------------------|
E|---------------------------------------------------------------------------|

(1:40 - 2:05)

e|---------------------------------------------------------------------------|
B|---------------------------------------------------------------------------|
G|-10-10-10-10-----10-10-10-----10-10-10-10-9-9------9--9--9-9-----9--9-9----|
D|-10-10-9--10-----10-9--10-----10-9--10-12-9-10-----10-10-9-10----10-9-10---|
A|---------------------------------------------------------------------------|
E|---------------------------------------------------------------------------|

e|---------------------------------------------------------------------------|
B|---------------------------------------------------------------------------|
G|-9--9-9--9--7-7-----7-7-7-7-----7-7-7-----7-7-7-7--5-5-----5-5-5-5----5-5-5|
D|-10-9-10-12-7-9-----9-9-7-9-----9-7-9-----9-7-9-10-5-7-----7-7-5-7----7-5-7|
A|---------------------------------------------------------------------------|
E|---------------------------------------------------------------------------|

e|-----------------------------------------------------------------------------|
B|-----------------------------------------------------------------------------|
G|-5-5-5-----------------------------------------------------------------------|
D|-7-5-7-9-7-10 Then repeat from start again-----------------------------------|
A|-----------------------------------------------------------------------------|
E|-----------------------------------------------------------------------------|

Prechorus (2:06 - 2:08) *Palm muted*

e|1-1-1-1-1-1-1-1----------------------------------------------------------------------|
B|1-1-1-1-1-1-1-1----------------------------------------------------------------------|
G|2-2-2-2-2-2-2-2----------------------------------------------------------------------|
D|3-3-3-3-3-3-3-3----------------------------------------------------------------------|
A|-------------------------------------------------------------------------------------|
E|-------------------------------------------------------------------------------------|

Chorus (2:07 - 2:34)

Love is our resistance
               C
They'll keep us apart but they won't stop breaking us down
                                                           G   F
Hold me
Am
Our lips must always be sealed
                        F          E

It is the same for the next verse and chorus until the end of the second chorus where it
rid of the final E and goes:

(4:05 - 4:38)

The night has reached its end
F              C
We can't pretend
   G
We must run
        F    Am   G
We must run
        F    Am   G
It's time to run
        F    Am   G   E   F

(4:38 - 4:48)

Take us away from here
A              Dm
Protect us from further harm
A              Dm            C

e|----------------------------------------------------------------------------|
B|----------------------------------------------------------------------------|
G|----------------------------------------------------------------------------|
D|-5-5-5-5-5-5-5-5-7-7-7-7-7-7-7-7-9-9-9-9-10-10-10-10-12-12-12-12-15-15-15-15|
A|-5-5-5-5-5-5-5-5-7-7-7-7-7-7-7-7-9-9-9-9-10-10-10-10-12-12-12-12-15-15-15-15|
E|-3-3-3-3-3-3-3-3-5-5-5-5-5-5-5-5-7-7-7-7--8--8--8--8-10-10-10-10-13-13-13-13|

Finish on:

e|---------------------------------------------------------------------------|
B|---------------------------------------------------------------------------|
G|---------------------------------------------------------------------------|
D|---------------------------------------------------------------------------|
A|---------------------------------------------------------------------------|
E|-12------------------------------------------------------------------------|

| /  slide up
| \  slide down
| h  hammer-on
| p  pull-off
| ~  vibrato
| +  harmonic
| x  Mute note


------------------------------------------------------------------------------
			    3. UNDISCLOSED DESIRES
-----------------------------------------------------------------------------

Capo 3

Intro:
    Am7                            Em
e|------------------------------------------------------------------|
B|----------1--------------1---0-----------0---------------0--------|
G|------0------0-------0---------------0-------0-------0-------0----|
D|----2---2--2---2---2---2---2---2---2---2---2---2-------2---2---2--| x2
A|--0--------------0---------------------------------2--------------|
E|---------------------------------0---------------0----------------|

C
 I know you've suffered
       Em
 But I don't want you to hide
C
 It's cold and loveless
         Em
 I won't let you be denied

 C
 Soothing
      Em
 I'll make you feel pure
     C
 And trust me
 Em
 You can be sure

Chorus:
Am         C             Em               G
 I want to reconcile the violence in your heart
Am         C              Em                  G
 I want to recognize your beauty's not just a mask
Am         C            Em               G
 I want to exorcise the demons from your past
Am         C           Em            G             C
 I want to satisfy the undisclosed desires in your heart


 You trick your lovers
             Em
 That you're wicked and divine
C
 You may be a sinner
          Em
 But your innocence is mine
 C
 Please me
 Em
 Show me how it's done
 C
 Tease me
 Em
 You are the one

Chorus

Am Em x2

 C
 Please me
 Em
 Show me how it's done
 C
 Trust me
 Em
 You are the one

Chorus

C Em x2


------------------------------------------------------------------------------
	          4. UNITED STATES OF EURASIA (+COLLATERAL DAMAGE)
-----------------------------------------------------------------------------

Tuning:Eb

   The violin parts come in with Matt's voice
eb|--------------------|
Bb|--------------------|
Gb|-9-8-7-6-5(hold)-6--| just once
Db|--------------------|
Ab|--------------------|
Eb|--------------------|

Listen for when the violin come in again
eb|--------------------------|
Bb|--------------------------|
Gb|-9-8-5-4------------------|
Db|----------2--4-2-4-6--6---|
Ab|--------------------------|
Eb|--------------------------|

   This is where the song explodes into the Queen sound
    Guitar one  GUitar two
eb|-----------|-----------|
Bb|--11~-12~--|-----------|
Gb|-----------|-----------|
Db|-----------|---8~-9~---|
Ab|-----------|-----------|
Eb|-----------|-----------|

   When Matt sings the second time "Must we do as we're told"
   The guitar fades in with vibrato
eb|------|
Bb|------|
Gb|--9~--|
Db|------|
Ab|------|
Eb|------|

   This is the asian sounding melody
eb|---------------------------|
Bb|---------------------------|
Gb|-4/9--7-9-10--9-10-12-10-9-|
Db|---------------------------|
Ab|---------------------------|
Eb|---------------------------|

eb|-------------------------------------------------------|
Bb|-------------------------------------------------------|
Gb|-10-9----9---------------------------------------------|
Db|------12---12-10-12-10-9-7--10-9-7-6h7p6---6-----------|
Ab|-----------------------------------------8---8-7-5-7~--|
Eb|-------------------------------------------------------|


eb|------------------7h8-7--|
Bb|-------------9h10--------|
Gb|-4/9--7-9-10-------------|
Db|-------------------------|
Ab|-------------------------|
Eb|-------------------------|

eb|-8p7-8-10/12-10-8-7-8p7----------------------------|
Bb|------------------------10-9h10p9----9-------------|
Gb|----------------------------------10---10-9-7-9~---|
Db|---------------------------------------------------|
Ab|---------------------------------------------------|
Eb|---------------------------------------------------|

  "and we know that there's no one we can trust"

eb|----------------------|
Bb|-9-10-9-7-10-9-11-12--|
Gb|----------------------|
Db|----------------------|
Ab|----------------------|
Eb|----------------------|

  "They promise to go on, and on, and on"

                   Guitar one   Guitar two
eb|--------------------------|-----------|
Bb|-9-10-9-7-10-9---11~-12~--|-----------|
Gb|--------------------------|-----------|
Db|--------------------------|---8~-9~---|
Ab|--------------------------|-----------|
Eb|--------------------------|-----------|

   The run up and back down over the above guitar parts
   (Im sure the run up is wrong, but it was worth a try)
eb|-----------------------------------------------------------------|
Bb|-------------------17~-16~-14h16p14-12h14p12-10h12p10-9h10p9-7~--|
Gb|----------15h16h18-----------------------------------------------|
Db|-14h16h18--------------------------------------------------------|
Ab|-----------------------------------------------------------------|
Eb|-----------------------------------------------------------------|

   When Matt sings the second time "United States"
   The guitar fades in with vibrato
eb|------|
Bb|------|
Gb|--9~--|
Db|------|
Ab|------|
Eb|------|

   Back into this melody
eb|---------------------------|
Bb|---------------------------|
Gb|-4/9--7-9-10--9-10-12-10-9-|
Db|---------------------------|
Ab|---------------------------|
Eb|---------------------------|

eb|-------------------------------------------------------|
Bb|-------------------------------------------------------|
Gb|-10-9----9---------------------------------------------|
Db|------12---12-10-12-10-9-7--10-9-7-6h7p6---6-----------|
Ab|-----------------------------------------8---8-7-5-7~--|
Eb|-------------------------------------------------------|


eb|------------------7h8-7--|
Bb|-------------9h10--------|
Gb|-4/9--7-9-10-------------|
Db|-------------------------|
Ab|-------------------------|
Eb|-------------------------|

eb|-8p7-8-10/12-10-8-7-8p7----------------------------|
Bb|------------------------10-9h10p9----9-------------|
Gb|----------------------------------10---10-9-7-9~---|
Db|---------------------------------------------------|
Ab|---------------------------------------------------|
Eb|---------------------------------------------------|

   When the "sia" is pronounces on the "Eurasia", you hit these notes
                                                  Guitar one  Guitar two (17th fret
better)
eb|----------------------------------------------------------|-------|
Bb|----------------------------------------------------------|--17~--|
Gb|-12--11--10--8---12--11--10--8---12--11--10--8~-----9~----|-------|
Db|----------------------------------------------------------|-------|
Ab|----------------------------------------------------------|-------|
Eb|----------------------------------------------------------|-------|

| /  slide up
| \  slide down
| h  hammer-on
| p  pull-off
| ~  vibrato
| +  harmonic
| x  Mute note

------------------------------------------------------------------------------
			    5. GUIDING LIGHT
-----------------------------------------------------------------------------

Verse

Pure hearts stumble
In my hands, they crumble
Fragile and stripped to the core
I can't hurt you any more

Loved by numbers
You're losing life's wonder
Touch like strangers; detached
I can't feel you any—


    C

e---8--8--8--8--8--8--8--8--8--8--8--8-10-10--8-10---|
B---8--8--8--8--8--8--8--8--8--8--8--8--8--8--8--8---|
G---9--9--9--9--9--9--9--9--9--9--9--9-10-10--9-10---|
D--10-10-10-10-10-10-10-10-10-10-10-10-10-10-10-10---|
A----------------------------------------------------|
E----------------------------------------------------|

     more —


   C

e--12-12-12-12-12-12-12-12-12-12-12-12-10-10--8-10---|
B--13-13-13-13-13-13-13-13-13-13-13-13--8--8--8--8---|
G--12-12-12-12-12-12-12-12-12-12-12-12-10-10--9-10---|
D--------------------------------------10-10-10-10---|
A----------------------------------------------------|
E----------------------------------------------------|

    C

e----8--8--8--8--8--8--8--8--8--8--8--8-10-10--8-10--|
B----8--8--8--8--8--8--8--8--8--8--8--8--8--8--8--8--|
G----9--9--9--9--9--9--9--9--9--9--9--9-10-10--9-10--|
D---10-10-10-10-10-10-10-10-10-10-10-10-10-10-10-10--|
A----------------------------------------------------|
E----------------------------------------------------|

   C

e---8--8--8--8--8--8--8--8--8--8--8--8-10-10--8-10---|
B---8--8--8--8--8--8--8--8--8--8--8--8--8--8--8--8---|
G---9--9--9--9--9--9--9--9--9--9--9--9-10-10--9-10---|
D--10-10-10-10-10-10-10-10-10-10-10-10-10-10-10-10---|
A----------------------------------------------------|
E----------------------------------------------------|

   C

e--12-12-12-12-12-12-12-12-12-12-12-12-12-12-12-12---|
B--13-13-13-13-13-13-13-13-13-13-13-13-13-13-13-13---|
G--12-12-12-12-12-12-12-12-12-12-12-12-12-12-12-12---|
D----------------------------------------------------|
A----------------------------------------------------|
E----------------------------------------------------|

   F			   G

e---8--8--8--8--8--8--8--8-10-10-10-10-10-10-10-10---|
B--10-10-10-10-10-10-10-10-12-12-12-12-12-12-12-12---|
G--10-10-10-10-10-10-10-10-12-12-12-12-12-12-12-12---|
D--10-10-10-10-10-10-10-10-12-12-12-12-12-12-12-12---|
A----------------------------------------------------|
E----------------------------------------------------|

   The sun —		   shine


   Am			   F

e--12-12-12-12-12-12-12-12-13-13-13-13-13-13-13-13---|
B--13-13-13-13-13-13-13-13-13-13-13-13-13-13-13-13---|
G--14-14-14-14-14-14-14-14-14-14-14-14-14-14-14-14---|
D----------------------------------------------------|
A----------------------------------------------------|
E----------------------------------------------------|

   Trapped    in   our      hearts,		it


  C

e----12-------12-------12-------12-------12----------|
B-------13-------13-------13-------13-------13-------| At this point the chords
G-12-------12-------12-------12-------12-------12----| are picked randomly, so
D----------------------------------------------------| you can do that instead of
A----------------------------------------------------| learning it all.
E----------------------------------------------------|

  could        rise—


  C

e----8--------8--------8--------8--------8-----------|
B-------8--------8--------8--------8--------8--------|
G-9--------9--------9--------9--------9--------9-----|
D----------------------------------------------------|
A----------------------------------------------------|
E----------------------------------------------------|

    again—


   F			 G

e----8--------8-------8-----10-------10-------10-----|
B------10-------10-------------12-------12-----------|
G-10------10-------10----12-------12-------12--------|
D----------------------------------------------------|
A----------------------------------------------------|
E----------------------------------------------------|

  But    I'm     lost,	  Crushed


   Am			  F

e---12----12-12-12----12-----13-----13-13-13----13---|
B----------------------------------------------------|
G-14---14----------14-----14----14-----------14------|
D----------------------------------------------------|
A----------------------------------------------------|
E----------------------------------------------------|

   cold   and   confused     with       no


   Dm

e---13----13-13-13----13------13----13-13-13----13---|
B----------------------------------------------------|
G-14---14----------14------14---14-----------14------|
D----------------------------------------------------|
A----------------------------------------------------|
E----------------------------------------------------|

   guiding —


   G

e----15---15-15-15----15------15----15-15----15-15---|
B----------------------------------------------------|
G-16---16----------16------16----16-------16---------|
D----------------------------------------------------|
A----------------------------------------------------|
E----------------------------------------------------|

   light—				left


     C

e----------------------------------------------------|
B----13\---with-delay---------------x/---------------|
G----12\----------------------------x/---------------|
D----------------------------------------------------|
A----------------------------------------------------|
E----------------------------------------------------|

   inside


Chorus
							Note the following isn't
							arranged in proper timing/bars
    F

e---1------------------------------------------------|
B------1------1-------1-----1-----------------1------|   Not sure what this chord
G---------0--------0-----0-----0-----0-----0-----0---|	is called, but it's some
D---------------3-----------------3-----3------------|	variation of F
A----------------------------------------------------|
E-----Lots-of-delay----------------------------------|


   C

e---3------------------------------------------------|
B------1------1-------1-----1-----------------1------|
G---------0--------0-----0-----0-----0-----0-----0---|
D---------------2-----------------2-----2------------|
A----------------------------------------------------|
E----------------------------------------------------|


   C

e---3------------------------------------------------|
B------1------1-------1-----1-----------------1------|	Another variation
G---------0--------0-----0-----0-----0-----0-----0---|	unknown to me
D---------------3-----------------3-----3------------|
A----------------------------------------------------|
E----------------------------------------------------|

    You        were     my     gui-     ding

			    F

e---3-----------------------1------------------------|
B------1------1-------1--------1-----1--------1------|
G---------0--------0-----0--------2--------2-----2---|
D---------------3-----------------------3------------|
A----------------------------------------------------|
E----------------------------------------------------|

				light—

   C

e----------------------------------------0-----------|
B---------1-----1-----------------1---------1-----1--|
G------0-----0-----0-----0-----0-----0---------0-----|
D---2-----------------2-----2------------------------|
A----------------------------------------------------|
E----------------------------------------------------|


   C

e----------------------------------------------------|
B---------1-----1-----------------1------------------|
G------0-----0-----0-----0-----0-----0-----solo------|
D---2-----------------2-----2------------------------|
A----------------------------------------------------|
E------------------------------------------20\-------|


Solo			(EXACTLY HOW MATT PLAYS IT)


e--------------------------------------|------------------------------------------------|
B--------------------------------------|------------------------------------------------|
G--------------------------------------|------------------------------------------------|
D--------------------------------------|------------------------------------------------|
A-----3~~~---------7~~--10~~-----------|--14~~~~~-------14^--12~~~~---------------------|
E--------------------------------------|--------------------------------------------5---|

e--------------------------------------|------------------------------------------------|
B--------------------------------------|------------------------------------------------|
G--------------------------------------|------------------------------------------------|
D--------------------------------------|------------------------2-3-5pinch~harmonic~~~--|
A--------------------------------------|-----------2-3-5-2-3-5--------------------------|
E---13--12--10~\---------8~~-----------|--3-2-3-5---------------------------------------|
				            alternate picking


e--------------------------------------|------12-12--------12-12----------13---------13-|
B---12^~~~---------14^~~~tremolo-------|--15^---------15^----------15--13---------------|
G--------------------------------------|--------------------------------------14--14----|
D--------------------------------------|------------------------------------------------|
A--------------------------------------|------------------------------------------------|
E--------------------------------------|------------------------------------------------|


e----------12----------12---------10---|------------------------------------------------|
B--------------------------------------|---12^-hold+tremolo-~~~~~-----------------------|
G--12---12-----12---12----10---10---10-|------------------------------------------------|
D--------------------------------------|------------------------------------------------|
A--------------------------------------|------------------------------------------------|
E--------------------------------------|------------------------------------------------|


Verse


      F			G

e-----1-----------------3----------------------------|
B-----1-----------------3----------------------------|
G-----2-----------------4----------------------------|
D-----3-----------------5----------------------------|
A-----3-----------------5----------------------------|
E-----1-----------------3----------------------------|

     When     com-      -fort


     Am			F

e----5------------------1----------------------------|
B----5------------------1----------------------------|
G----5------------------2----------------------------|
D----7------------------3----------------------------|
A----7------------------3----------------------------|
E----5------------------1----------------------------|

     and warmth can't be found		    I still


     C

e----------------------------------------------------|
B----------------------------------------------------|
G----------------------------------------------------|
D----------------------------------------------------|
A---3------------------/5-----------/7---------/19^~-|
E----------------------------------------------------|

    reach-                   for you

      F			G

e-----1-----------------3----------------------------|
B-----1-----------------3----------------------------|
G-----2-----------------4----------------------------|
D-----3-----------------5----------------------------|
A-----3-----------------5----------------------------|
E-----1-----------------3----------------------------|

     But I'm lost,     Crushed


     Am			F

e----5------------------1----------------------------|
B----5------------------1----------------------------|
G----5------------------2----------------------------|
D----7------------------3----------------------------|
A----7------------------3----------------------------|
E----5------------------1----------------------------|

     Cold  and   con-   fused     with    no


    Dm

e---1------------------------------------------------|
B---3------------------------------------------------|
G---2------------------------------------------------|
D---0------------------------------------------------|
A----------------------------------------------------|
E----------------------------------------------------|

   guiding-


    G

e---3------------------------------------------------|
B---3------------------------------------------------|
G---4------------------------------------------------|
D---5------------------------------------------------|
A---5------------------------------------------------|
E---3------------------------------------------------|

    Light-            left,

    C

e---0------------------------------------------------|
B---1------------------------------------------------|
G---0------------------------------------------------|
D---2------------------------------------------------|
A---3------------------------------------------------|
E----------------------------------------------------|

    inside

Outro Chorus
(from here the chords just repeat with this picking pattern)


    F

e---1------------------------------------------------|
B------1------1-------1-----1-----------------1------|
G---------0--------0-----0-----0-----0-----0-----0---|
D---------------3-----------------3-----3------------|
A----------------------------------------------------|
E----------------------------------------------------|


   C

e---3------------------------------------------------|
B------1------1-------1-----1-----------------1------|
G---------0--------0-----0-----0-----0-----0-----0---|
D---------------2-----------------2-----2------------|
A----------------------------------------------------|
E----------------------------------------------------|


   C

e---3------------------------------------------------|
B------1------1-------1-----1-----------------1------|
G---------0--------0-----0-----0-----0-----0-----0---|
D---------------3-----------------3-----3------------|
A----------------------------------------------------|
E----------------------------------------------------|

    You're            my     gui-     ding

			    F

e---3-----------------------1------------------------|
B------1------1-------1-----------------1------------|
G---------0--------0-----0-----2-----2-----2-----2---|
D---------------3-----------------3-----------3------|
A----------------------------------------------------|
E----------------------------------------------------|

				      light—

   C

e----------------------------------------0-----------|
B---------1-----1-----------------1---------1-----1--|
G------0-----0-----0-----0-----0-----0---------0-----|
D---2-----------------2-----2------------------------|
A----------------------------------------------------|
E----------------------------------------------------|

   C					(3:25)

e----------------------------------------3-----------|
B---------1-----1-----------------1---------1-----1--|
G------0-----0-----0-----0-----0-----0---------0-----|
D---2-----------------2-----2------------------------|
A----------------------------------------------------|
E----------------------------------------------------|

					    You're


=============================================================
Repeat these last four lines

   C

e|----------------------------------------3-----------|
B|•--------1-----1-----------------1---------1-----1--|
G|------0-----0-----0-----0-----0-----0---------0-----|
D|---3-----------------3-----3------------------------|
A|•---------------------------------------------------|
E|----------------------------------------------------|

    my          gui-              ding
    there's no  gui-              ding
    there's no  gui-              ding


			    F

e---------------------------1------------------------|
B---------1-----1-----------------------1------------|
G------0-----0-----0-----0-----2-----2-----2-----2---|
D---2-----------------2-----------3-----------3------|
A----------------------------------------------------|
E----------------------------------------------------|

    -		-		   light—
    light    	left        	   in-
    light            in         our        lives

   C

e----------------------------------------0-----------|
B---------1-----1-----------------1---------1-----1--|
G------0-----0-----0-----0-----0-----0---------0-----|
D---2-----------------2-----2------------------------|
A----------------------------------------------------|
E----------------------------------------------------|

    —					-
    -side
    -                                   -


______________________________________________________
|1, 2
   C

e----------------------------------------3------------|		Play this the first 2 times,
B---------1-----1-----------------1---------1-----1--•|		then skip it the third time
G------0-----0-----0-----0-----0-----0---------0------|
D---2-----------------2-----2-------------------------|
A----------------------------------------------------•|
E-----------------------------------------------------|

					   When-
					   When-


______________________________________________________
|3
   C

e----------------------------------------0------------|
B---------1-----1-----------------1-------------------|
G------0-----0-----0-----0-----0-----0----------------|
D---2-----------------2-----2-------------------------|
A-----------------------------------------------------|
E-----------------------------------------------------|


------------------------------------------------------------------------------
			    6. UNNATURAL SELECTION
-----------------------------------------------------------------------------

Tuning: Drop D

Intro
e|--------------------------------------------------------|
B|--------------------------------------------------------|
G|--------------------------------------------------------|
D|--------------------------------------------------------|
A|--------------------------------------------------8---8-|
D|5-5-5-5-5-5-5-5-5-5-5-5-5-5-5-5-5-5-5-5-5-5-5-5-5---5---|

e|-----------------------------------------------|
B|-----------------------------------------------|
G|-----------------------------------------------|
D|-----------------------------------------------|
A|------------------------6---6------------------|
D|5-5-5-5-5-5-5-5-5-5-5-5---5---5-5-5-5-5-5-5-5--|

e|-------------------|
B|-------------------|
G|-------------------|
D|-------3-4-----4-5-|
A|-------------------|
D|-3-0-3-----0-4-----|

Verse
e|------------------------------------------------------------------------|
B|------------------------------------------------------------------------|
G|------------------------------------------------------------------------|
D|------------------------------------------------------------3-4-----4-5-|
A|------------------------------------------------------------------------|
D|-5-5-5-5-5-5-5-5-8-5-8-9-10-8-10-11-11-12-0-0-0-0-0-0-3-0-3-----0-4-----|

E|----------------------------------------------------------------------|
B|-----------------------------3-3-6-6--4-4-4-4-4-4-4-4-4-4-4-4-4-4-4-4-|
G|----3-3-3-3-2-2-2-2-3-3-5-5---------------------------2-2-2-2-2-2-2-2-|
D|----------------------------------------------------------------------|
A|----------------------------------------------------------------------|
D|----------------------------------------------------------------------|

E|------------------------------------------------------------------|
B|-3-3-3-3-1-1-1-1-3-3-1-1------------------------------------------|
G|--------------------------3-3-2-2-3-3-3-3-3-3-3-3-2-2-2-2-2-2-2-2-|
D|------------------------------------------------------------------|
A|------------------------------------------------------------------|
D|------------------------------------------------------------------|

e|---------------------------------|
B|---------------------------------|
G|-3---3---3---3---2---2---2---2---|
D|---0---0---0---0---0---0---0---0-|
A|---------------------------------|
D|---------------------------------|

Chorus
E|---------------------------|
B|-------------4------4------|
G|-------------5------3------|
D|-5--5--------5------5------|
A|-5--5-(14x)--3-(8x)-3-(8x)-|
D|-5--5----------------------|

E|---------------------------|
B|---------------------------|
G|-------------3------2------|
D|-3--3--------3------3------|
A|-3--3-(14x)--1-(8x)-1-(8x)-|
D|-3--3----------------------|

E|-------------------------------------|
B|-------------------------------------|
G|-------------------------------------|
D|-1--------2--------3--------4------5-|
A|-x--------x--------x--------x------x-|
D|-1-(8x)---2-(8x)---3-(8x)---4-(8x)-5-|

e|----------------------------|
B|----------------------------|
G|------------------3/--------|
D|-1-1-1-1-3-3-3-3--3/---x----|
A|------------------1/---x----|
E|-1-1-1-1-3-3-3-3-------x-3b-|


Bridge
e|-----------------------------------|
B|---------------------------------8-|
G|--------------------------7----7---|
D|-----------------------------------|
A|-----------------------------------|
D|-5~~~~~~~~-------------------------|

-----------------|---------------|---------------|---------------|
-----------------|---------------|---------------|---------------|
--x--x-----------|---------------|---------------|---------------|
--x--x-----------|---------------|---------------|---------------|
--x--x-----------|---------------|--5------------|---------------|
-----------------|--5------------|---------------|--1------------|


---------------|---------------|----------------------|-------------------|
---------------|---------------|----------------------|-------------------|
---------------|---------------|----------------------|-------------------|
---------------|---------------|----------------------|-------------------|
--3------------|--5------------|--12--12br------------|--------10--9------|
---------------|---------------|----------------------|-------------------|


-----------------|---------------|---------------|---------------|
-----------------|---------------|---------------|---------------|
-----------------|---------------|---------------|---------------|
-----------------|---------------|---------------|---------------|
--15b------------|---------------|--5------------|---------------|
-----------------|--5------------|---------------|--1------------|


---------------|---------------|----------------------|-------------------|
---------------|---------------|----------------------|-------------------|
---------------|---------------|----------------------|-------------------|
---------------|---------------|----------------------|-------------------|
--3------------|--5------------|--12--12br------------|--------10--9------|
---------------|---------------|----------------------|-------------------|

-----------------|---------------|---------------|---------------|
-----------------|---------------|---------------|---------------|
-----------------|---------------|---------------|---------------|
-----------------|---------------|---------------|---------------|
--15b------------|---------------|---------------|---------------|
-----------------|---------------|---------------|---------------|


---------------|---------------|---------------|-----------------|
---------------|---------------|---------------|-----------------|
---------------|---------------|---------------|--12b------------|
---------------|---------------|---------------|-----------------|
---------------|---------------|---------------|-----------------|
---------------|---------------|---------------|-----------------|

----------------|-----------------|-----------------------|-----------------|
----------------|-----------------|-----------------------|-----------------|
--12------------|--12\------------|-----------------------|-----------------|
----------------|-----------------|-----------15--17--15--|--20b------------|
----------------|-----------------|-----------------------|-----------------|
----------------|-----------------|-----------------------|-----------------|

------------------------|--------------------|-----------------|
------------------------|--------------------|-----------------|
------------------------|--------------------|-----------------|
--20b----20--20b----20--|--20br------19------|--19s------------|
------------------------|--------------------|-----------------|
------------------------|--------------------|-----------------|

------------------------|--------------------------------------|
------------------------|--------------------------------------|
--------12------12------|--12------12-----12----12----12----12-|
--12--------12------12--|------12------12----12----12----12----|
------------------------|--------------------------------------|
------------------------|--------------------------------------|

--------------------------------------|
--------------------------------------|
-----12----12----12----12----12----12-|
--13----13----13----13----13----13----|
--------------------------------------|
--------------------------------------|

--------------------------------------|
--------------------------------------|
-----14----14----14----14----14----14-|
--13----13----13----13----13----13----|
--------------------------------------|
--------------------------------------|

----------------------------------------|
----------------------------------------|
-----15----15-15-15-15-15-15-15-15b-15b-|
--12----12-12-12-12-12-12-12-12-12b-12b-|
----------------------------------------|
----------------------------------------|


--------------------------------------------------|------------------------|
--------------------------------------------------|------------------------|
--15b-15b-15b-15b-15b-15b-15b-15b-15b-15b-15b-15b-|--15--12--14------------|
--12--12--12--12--12--12--12--12--12--12--12--12--|------------------------|
--------------------------------------------------|------------------------|
--------------------------------------------------|------------------------|


------------------|---------------|---------------|---------------|
------------------|---------------|---------------|---------------|
--17b-------------|---------------|---------------|---------------|
------------------|---------------|---------------|---------------|
------------------|---------------|--5------------|---------------|
------------------|--5------------|---------------|--1------------|


---------------|---------------|----------------------|-------------------|
---------------|---------------|----------------------|-------------------|
---------------|---------------|----------------------|-------------------|
---------------|---------------|----------------------|-------------------|
--3------------|--5------------|--12--12br------------|--------10--9------|
---------------|---------------|----------------------|-------------------|


-----------------|---------------|---------------|---------------|
-----------------|---------------|---------------|---------------|
-----------------|---------------|---------------|---------------|
-----------------|---------------|---------------|---------------|
--15b------------|---------------|--5------------|---------------|
-----------------|--5------------|---------------|--1------------|


---------------|---------------|----------------------|-------------------|
---------------|---------------|----------------------|-------------------|
---------------|---------------|----------------------|-------------------|
---------------|---------------|----------------------|-------------------|
--3------------|--5------------|--12--12br------------|--------10--9------|
---------------|---------------|----------------------|-------------------|

-----------------|---------------|---------------|
-----------------|---------------|---------------|
-----------------|---------------|---------------|
-----------------|---------------|---------------|
--15b------------|---------------|---------------|
-----------------|---------------|---------------|

It ends with
e|-------------------------------------------------|
B|-------------------------------------------------|
G|-------------------------------------------------|
D|-------------------------------------------------|
A|--------8--------7-----7-------6--------5-----5--|
D|--5--5-----5--5-----5-----5--5-----5--5-5---5-5--|


e|--------------------------|--------------------------|
B|--------------------------|--------------------------|
G|--------------------------|--------------------------|
D|--------8--------7-----7--|--------6--------5-----5--|
A|--------8--------7-----7--|--------6--------5-----5--|
D|--5--5-----5--5-----5-----|--5--5-----5--5--5--5--5--|


------------------------------------------------------------------------------
			    7. MK ULTRA
-----------------------------------------------------------------------------

Intro: x 2

e|-------------------------------------------------------------------------|
B|-6---5-6---5-6-----6-----6-----6-----6-----6-----8-------8-------8-------|
G|-----------------------------------5-----5-----5-------------------------|
D|---7-----7-----7-8---7-8---7-8---7-----7-----7------9-10----9-10----9-10-|
A|-------------------------------------------------------------------------|
E|-------------------------------------------------------------------------|

e|-------------------------------------------------------------------------|
B|----10-------10-------11-------11-------11-----------10-------10---------|
G|--------------------------------------------------10-------10-------10---|
D|-12----10-12----10-12----10-12----10-12----10--10-------10-------10------|
A|-------------------------------------------------------------------------|
E|-------------------------------------------------------------------------|

e|-------------------------------|
B|-------------------------------|
G|--12--10--9------10--9---------|
D|-------------11---------11--8--|
A|-------------------------------|
E|-------------------------------|

Verse: x 2

e|----------------------------------|
B|----------------------------------|
G|----------------------------------|
D|--7-(x30ish)-8-(x8)-7-(x8)-5 (x8)-|
A|----------------------------------|
E|----------------------------------|

Intro x 1

Chorus:

e|----------------------------------------------------------------|
B|----------------------------------------------------------------|
G|-7-------9-------10-------12------10------9------7------6-------|
D|-x-(x16)-x-(x32)-x--(x16)--x-(x4)-x--(x4)-x-(x4)-x-(x4)-x-(x16)-|
A|-5-------7-------8--------10------8-------7------5------4-------|
E|----------------------------------------------------------------|

Interlude: x 2

e|-----------------------------------------------------------------|
B|-----------------------------------------------------------------|
G|-----------------------------------------------------------------|
D|-----------------------------------------------------------------|
A|-12-12--12--12\---12-12--12--11\---10-10--10--10\---9-9--9--9\---|
E|-12-12--12--12\---12-12--12--11\---10-10--10--10\---9-9--9--9\---|
   x  x   x         x  x   x         x  x   x         x x  x

e|---------------------------------------------------- | ------|
B|---------------------------------------------------- | ------|
G|---------------------------------------------------- | ------|
D|---------------------------------------------------- | ------|
A|-8-8--8--8\---7-7--7--7\---7-7--7--7\---7-7--7--7\-- | ------|
E|-8-8--8--8\---7-7--7--7\---7-7--7--7\---7-7--7--7\-- | -15\--| <- 2nd time
   x x  x       x x  x       x x  x       x x  x


Riff:

e|--------------------------|
B|--------------------------|
G|--------------------------|
D|----------------------5\--| x 4
A|-0--0--3--0--5--7--0------|
E|-0--0--3--0--5--7--0------|


Verse x 2

Intro x 1

Chorus x 1

Outro Part 1:

e|-----------------------------------------------|
B|-----------------------------------------------|
G|-7------10------9--------5------8------7-------|
D|-x-(x8)-x--(x8)-x-(x16)--x-(x8)-x-(x8)-x-(x16)-|
A|-5------8-------7--------3------6------5-------|
E|-----------------------------------------------|

e|------------------------------------|
B|------------------------------------|
G|-3------7-------10------9-----------|
D|-x-(x8)-x-(x24)-x-(x16)-x-let ring--|
A|-1------5-------8-------7-----------|
E|------------------------------------|

e|------------------------------------|
B|------------------------------------|
G|------------------------------------|
D|------------------------------------|
A|------------------------------------|
E|-1515141411313121210109988776655\---|


Outro Part 2:

e|--------------------------|
B|--------------------------|
G|--------------------------|
D|--------------------------| x 3
A|-0--0--3--0--5--7--0--5\--|
E|-0--0--3--0--5--7--0------|

e|--------------------------|
B|--------------------------|
G|--------------------------|
D|--------------------------| x 2
A|-0--0--3--0--5--7--0--7\--|
E|-0--0--3--0--5--7--0------|

e|--------------------------|--------------------------|
B|--------------------------|--------------------------|
G|--------------------------|--------------------------|
D|--------------------------|--------------------------|
A|-0--0--3--0--5--7--0--8\--|-0--0--3--0--5--7--0--10\-|
E|-0--0--3--0--5--7--0------|-0--0--3--0--5--7--0------|

e|--------------------------|--------------------------|
B|--------------------------|--------------------------|
G|--------------------------|--------------------------|
D|--------------------------|--------------------------|
A|-0--0--3--0--5--7--0--12\-|-0--0--3--0--5--7--0--13\-|
E|-0--0--3--0--5--7--0------|-0--0--3--0--5--7--0------|

e|--------------------------|--------------------------|
B|--------------------------|--------------------------|
G|--------------------------|--------------------------|
D|--------------------------|--------------------------|
A|-0--0--3--0--5--7--0--14\-|-0--0--3--0--5--7--0--15\
Добавлено: 14.05.2012
Другие материалы по этой песне:
  • Аккорды и текст

Страница создана 24.02.2012
http://primanota.ru/muse/resistance-album-chords.htm
Привет, Гость.
Предлагаем пройти революционный курс по гитаре.
Подарок от PrimaNota.Ru, забирай!