PrimaNota.ru - самый крупный в мире бесплатный архив песенных текстов, аккордов, табулатур и нот


Мумий тролль - Странники - аккорды и текст, видео

Регистрация Запомнить меня
Войти через:  Facebook Google Twitter Vk Yandex Mail.ru

Мумий тролль - Странники - аккорды и текст, видео

Печатать
Просмотров: 354
Странники
Мумий тролль
Intro:
         A
  Но из тех, кто смотрит,
       Em
  Кто смотрит на звезды
Bm               E
  С другой стороны...
         A
  Но из тех, кто смотрит,
        Em
  Кто смотрит на звезды
Bm               E
  С другой стороны...

Bridge:
Rhythm: A Em Bm E x2
Solo:
e----------------------------------|----9*--7*---------10--|
B----------------------------------|--7*--5*--7*--9-10-----|
G-------------4---------------7----------------|
D|--2----2----2-2-4-/5---------|--4----4----4--6/7---------------------|
A----------------------------------------------|
E----------------------------------------------|
(* - по многу раз)

A A A A A

Verse1:
silence       A           Bm
Рисовали на стенах чьи-то ласковые имена
     E                      Dm
И страдали любовью, были странниками до темна.
        A                       Bm
Но как только лунные блики разбивались о маленький двор,
     E                              Dm
Опускались на сны наши тихо, ждали солнца на зданиях школ.

Chorus:
       A
Но из тех, кто смотрит,
     Em                 Bm
Кто смотрит на звезды
               E
С другой стороны.
      Bm       E E
Мы не верим,   
      Bm       E E
Мы не знаем,
       Bm                   E
Мы не верим, не видим, не знаем,
                A
Мы в них влюблены.

Bridge:
Rhythm: A Em Bm E x2
Solo:
e|--9*--7*------------|--9*--7*---------------|
B|----7*--5*-7*-9-10--|----7*--5*-7*-9-12-10--|
(* - по многу раз)

A A A A A

Verse2:
Мы не видим на небе созвездий - любим свои облака,
Мы искали от моря спокойствия, только правила нам на века.
Не бросать нас любимых в праздник, и всегда опускали глаза
До утра мы такие все разные - забывали свои имена

Chorus:
Но из тех, кто смотрит,
Кто смотрит на звезды
С другой стороны.
Мы не верим,
Мы не знаем,
Мы не верим, не видим, не знаем,
Мы в них влюблены.

Bridge.

Chorus:
Но из тех, кто смотрит,
Кто смотрит на звезды
С другой стороны.
Мы не верим,
Мы не знаем,
Мы не верим, не видим, не знаем,
Мы в них влюблены!!!!!!

Solo:
e|-------0---------------------------5--7/9--10~-----
B------------------|-----0--3----5/7-----------------
G-6----4---6/7--0------------------------
D|--2--------------------------|--2------------------------------
A----------------------------------------
E----------------------------------------

--9h10---12------9-----------------------9-10----14---16-17--21----19---17--|
---------------------12-109-10----10h12------------------------------------|
----------------------------------------------------------------------------|
----------------------------------------------------------------------------|
----------------------------------------------------------------------------|
----------------------------------------------------------------------------|

A            A               A
ВЛЮБЛЕ-Е-Е-НЫ-Ы-Ы-Ы-А-А-А-А-А!!!!!!  :)

Добавлено: 17.03.2012
Другие материалы по этой песне:
  • Аккорды и текст

Страница создана 17.03.2012
http://primanota.ru/mumii-troll/stranniki-chords.htm
Привет, Гость.
Предлагаем пройти революционный курс по гитаре.
Подарок от PrimaNota.Ru, забирай!