PrimaNota.ru - самый крупный в мире бесплатный архив песенных текстов, аккордов, табулатур и нот


Мумий тролль - Новая луна апреля (басс-партия) - аккорды и текст, видео

Регистрация Запомнить меня
Войти через:  Facebook Google Twitter Vk Yandex Mail.ru

Мумий тролль - Новая луна апреля (басс-партия) - аккорды и текст, видео

Печатать
Просмотров: 796
Уроки эстрадного вокала в Санкт-Петербурге
Новая луна апреля (басс-партия)
Мумий тролль
Intro:

   Am                              F
A|-0----------------------------------------------------------------
E----------------------1--------------------------------   
   |   |   |   |   |   |   |   |   |   |   |   |   |   |   |   |   | 
   G                               Am
A----------------------0--------------------------------
E|-3----------------------------------------------------------------
   |   |   |   |   |   |   |   |   |   |   |   |   |   |   |   |   | 
   F               G
E|-1---------------3----------------
   |   |   |   |   |   |   |   |   |
 
Bridge and Verse:
 
   Am              G              Dm               F  
G--------------------------------------------0---0-----
D----------------------0---0-----0-2-0-3-------3---3-0-
A|-0---0-------0---------------------------------------------------
E---0-3---3-----0-3-0---------------------------------

   |   |   |   |   |   |   |   |   |   |   |   |   |   |   |   |   

Chorus:

   Am              F               C               E 
D----------------------------------0---2-----3-2-0-----
A|-0---0-------0-------------------3---3-----3---3-------------3-2-
E---0-1---1-----0-1-0---------------------------------

   |   |   |   |   |   |   |   |   |   |   |   |   |   |   |   |   
Добавлено: 06.05.2012
Другие материалы по этой песне:
  • Аккорды и текст

Страница создана 06.05.2012
http://primanota.ru/mumii-troll/novaya-luna-aprelya-bass-partiya-chords.htm
Привет, Гость.
Предлагаем пройти революционный курс по гитаре.
Подарок от PrimaNota.Ru, забирай!