PrimaNota.ru - самый крупный в мире бесплатный архив песенных текстов, аккордов, табулатур и нот


Mudvayne - L.D. 50 - текст песни, таба, видео

Регистрация Запомнить меня
Войти через:  Facebook Google Twitter Vk Yandex Mail.ru

Mudvayne - L.D. 50 - текст песни, таба, видео

Печатать
Просмотров: 125
L.D. 50 by Mudvayne
Length-

None of these tabs are mine in any way. Credits (for the ones I'm sure of) at the bottom

1. Monolith

Interlude

2. Dig

INTRO

C#|-------------|
G#|-------------|
 E|-------------|
 B|--0-0---0-0--|
F#|--0-0---0-0--|
 B|--0-0---0-0--|


C#|--------------------------------------------------------|
G#|--------------------------------------------------------|
 E|------21b-(21)------21-(21)------21-(21)------21-(21)---|
 B|--0-0-----------0-0----------0-0----------0-0-----------|
F#|--0-0-19b-(19)--0-0-19-(19)--0-0-19-(19)--0-0-19-(19)---|
 B|--0-0-----------0-0----------0-0----------0-0-----------|

Chorus

C#|------------------------------|x3
G#|------------------------------|
 E|------------------------------|
 B|------------------------------|
F#|--2h3---2-------0--2--3-2-0-2-|
 B|--2h3---2-------0--2--3-2-0-2-|

C#|-----------------------------|
G#|-----------------------------|
 E|--------------------------3--|
 B|--------------------------2--|
F#|-2h3---2------------0--0--1--|
 B|-2h3---2------------0--0-----|

VERSE
                                         x3
C#|--------------------------------------------------------|
G#|--------------------------------------------------------|
 E|--------------------------------------------------------|
 B|--------------------------------------------------------|
F#|--2--2----------2---2--2-----2--2-----------------------|
 B|--2--2----------2---2--2-----2--2-----------------------|


C#|----------------------------------------------------|
G#|----------------------------------------------------|
 E|-/12--12--12--12--12--12--/-12--12--12--12--12------|
 B|----------------------------------------------------|
F#|-/10--10--10--10--10--10--/-10--10--10--10--10------|
 B|------------------------------------------------14/-|


PRE - BRIDGE

C#|------------------------------------------|
G#|------------------------------------------|
 E|------------------------------------------|
 B|------------------------------------------|
F#|-2h3---2------0--1--2-----5------4---3----|
 B|-2h3---2------0--1--2-----5------4---3----|


BRIDGE

C#|-------------------------------------------------------|
G#|-------------------------------------------------------|
 E|-------------------------------------------------------|
 B|-------------------------------------------------------|
F#|-2h3-2--2---2---2-------5-------5-------5------5------5|
 B|-2h3-2--2---2---2--5h6--5--5h6--5--5h6--5--5h6-5--5h6-5|

C#|------------------------------------------|
G#|------------------------------------------|
 E|------------------------------------------|
 B|------------------------------------------|
F#|-2h3---2------0--1--2-----5------4---3----|
 B|-2h3---2------0--1--2-----5------4---3----|


OUTRO

C#|----------------------------------------------------|
G#|----------------------------------------------------|
 E|----------------------------------------------------|
 B|----------------------------------------------------|
F#|--2h3---2-------------0--0--3-2-0-2--2h3--2---2h3---|
 B|--2h3---2-------------0--0--3-2-0-2--2h3--2---2h3---|

C#|----------------------------------------------------|x3
G#|----------------------------------------------------|
 E|----------------------------------------------------|
 B|----------------------------------------------------|
F#|--2h3---2----3-2-0-2--2h3--2------------------------|
 B|--2h3---2----3-2-0-2--2h3--2------------------------|


C#|--------------|
G#|--------------|
 E|-----------3--|
 B|-----------2--|
F#|-----0--0--1--|
 B|-----0--0-----|

3. Internal Primates Forever

*=Quik Pause
.=Palm Mute
/=Slide Up
h=Hammer On
p=Pull Off

INTRO:
|----------------------------|
|----------------------------|
|----------------------------|
|----------------------------|
|----------------------------|
|-4-0-1*--1-0-1*--0-0-3-2-3*-|

CHORUS 1:
|----------------------------|
|----------------------------|
|----------------------------|
|----------------------------|
|-4-0-1*--1-0-1*--0-0-3-2-3*-|
|-4-0-1*--1-0-1*--0-0-3-2-3*-|

FILL 1:
|----------------------------------|
|----------------------------------|
|----------------------------------|
|----------------------------------|
|-4-0-1*--1-0-1*--1-0*--1-0*----0*-|
|-4-0-1*--1-0-1*--1-0*--1-0*----0*-|

VERSE:
|-----------------------|
|-----------------------|
|---7-------7---------7-|
|-6---6-0-6---6-0-6-0-6-|
|-----------------------|
|-----------------------|
      . .     . . . .

BRIDGE 1:
|---------------------------------|
|---------------------------------|
|-7-7-7-------------3-3-3-5-5-6-6-|
|-------3-3-3-5-5-5---------------|
|---------------------------------|
|---------------------------------|
  . . . . . . . . . . . . . . . .

BRIDGE 2:
|----------------------------------------|
|----------------------------------------|
|----------------------------------------|
|----------------------------------------|
|-12-12-12-3-3-3-5-5-5-8-8-8-10-10-11-11-|
|-12-12-12-3-3-3-5-5-5-8-8-8-10-10-11-11-|

BRIDGE 3:
|-------------------------------------|
|-------------------------------------|
|-------------------------------------|
|-------------------------------------|
|-12-12-12-10-10-10-9-9-9-8-8-8-7-7-7-|
|-12-12-12-10-10-10-9-9-9-8-8-8-7-7-7-|

INTERLUDE 1:
|--------------------------|
|--------------------------|
|--------------------------|
|--------------------------|
|-5-3-0-3-5-0-3--6-3-0-3/5-|
|-5-3-0-3-5-0-3--6-3-0-3/5-|

INTERLUDE 2:
|---------------------------------------------------------|
|-8-8-8-8-8-8-8-8-8-8-8-8-9-9-9-9-8-8-8-8-8-8-8-8-8-8-8-8-|
|-X-X-X-X-X-X-X-X-X-X-X-X-X-X-X-X-X-X-X-X-X-X-X-X-X-X-X-X-|
|-5-5-5-5-5-5-5-5-5-5-5-5-6-6-6-6-5-5-5-5-5-5-5-5-5-5-5-5-|
|---------------------------------------------------------|
|---------------------------------------------------------|

FILL 2:[No Pauses]
|-------|      |-------|
|-------|      |-------|
|-------| (6x) |-------|
|-------|      |-------|
|-63035-|      |-63030-|
|-63035-|      |-63030-|

FILL 4:
|---------------|
|---------------|
|---------------|
|---------------|
|-0h2-0h2-3p0-2-|
|-0h2-0h2-3p0-2-|

CHORUS 2:
|---------------------------|
|---------------------------|
|---------------------------|
|---------------------------|
|-4p0-1p0-1p0-1p0-0-0-3-2-3-|
|-4p0-1p0-1p0-1p0-0-0-3-2-3-|

OUTRO:
|-----------------------------|
|-----------------------------|
|-----------------------------| (4x)
|-----------------------------|
|-4-3-0-7-6--X--4-3-0-7-6-0-3-|
|-4-3-0-7-6--X--4-3-0-7-6-0-3-|

|--------------------------------|
|--------------------------6-6-6-|
|--------------------------4-4-4-| (8x)
|--------------------------3-3-3-|
|-4-3-0-7-6--4-3-0-7-6-0-0-------|
|-4-3-0-7-6--4-3-0-7-6-0-0-------|

|---------------|
|---------------|
|---------------|
|---------------|
|-4-0-1*--1-0-1-|
|-4-0-1*--1-0-1-|

ORDER OF PLAYING:

INTRO (4X)
CHORUS 1 (7X)
FILL 1
VERSE (8X)
CHORUS 1 (4X)
VERSE (8X)
CHORUS 1 (4X)
BRIDGE 1
CHORUS 1 (3X)
FILL
BRIDGE 2 (2X)
BRIDGE 1 (3X)
BRIDGE 2 (3X)
BRIDGE 1 (4X)[Not Palmed 4th Time]
BRIDGE 2 (4X)
BRIDGE 3
INTERLUDE 1 (5X)
INTERLUDE 2 (2X)
INTERLUDE 1 (4X)
INTERLUDE 2 (2X)
INTERLUDE 1 (4X)
FILL 2
FILL 4
CHORUS 1 (4X)
CHORUS 2
OUTRO

4. -1

Drop B:
B F# B E G# C#

Intro: (0:00)

Fig. 1

e--------------------------------------------------------------------|
b--------------------------------------------------------------------|
g--------------------------------------------------------------------|
d-0-0-0-0-0-0-0-0-0-0-0-0-0-0--0--0-0-0-0-0-0-0-0-0-0-0-0-0-0-0-0-0--|
a-8-8-8-8-8-8-8-8-8-8-8-8-8-8-10-10-7-7-7-7-7-7-7-7-7-7-7-7-7-7-0-0--|
d--------------------------------------------------------------------|

Verses: (0:09)-(1:10)

Fig. 1 x4

Chorus: (0:50)-(1:51)

x4
e-----------------------------------------------------------------|
b-----------------------------------------------------------------|
g-----------------------------------------------------------------|
d-----------------------------------------------------------------|
a-3p0-0h4-3p0-----3p0-0-0--0------3p0-0h4-3p0-----3p0-0-0--0------|
d-3p0-----3p0-----3p0-0-0--0------3p0-----3p0-----3p0-0-0--0------|

(2:11)
x2
e-----------------------------------------------------------------|
b-----------------------------------------------------------------|
g-----------------------------------------------------------------|
d-----------------------------------------------------------------|
a-3p0-0h4-3p0-----3p0-0-0--0------3p0-0h4-3p0-----3p0-0-0--0------|
d-3p0-----3p0-----3p0-0-0--0------3p0-----3p0-----3p0-0-0--0------|

Pre-Bridge:

x11
e----------------------------------|
b----------------------------------|
g----------------------------------|
d----------------------------------|
a-2h3-2h3-5p3-2h3-2h3-2h3-5p3-5/6--|
d-2h3-2h3-5p3-2h3-2h3-2h3-5p3-5/6--|

Bridge: w/ wah & echo effects
(2:48)
x7
e-------------12------------------------------------------------|
b-12--------------12------12br----------12------12--------------|
g-------------------------------14----------14------14--13------|
d-----15--14----------15------------15----------------------14--|
a---------------------------------------------------------------|
d---------------------------------------------------------------|

Chorus:
(3:27)
x4
e-----------------------------------------------------------------|
b-----------------------------------------------------------------|
g-----------------------------------------------------------------|
d-----------------------------------------------------------------|
a-3p0-0h4-3p0-----3p0-0-0--0------3p0-0h4-3p0-----3p0-0-0--0------|
d-3p0-----3p0-----3p0-0-0--0------3p0-----3p0-----3p0-0-0--0------|

Outro: (3:47)

e-----------------------------------------------------------------|
b-----------------------------------------------------------------|
g-----------------------------------------------------------------|
d-----------------------------------------------------------------|
a-3p0-0h4-3p0---3p0-0-0--0-x-x--x-3p0-0h4-3p0---3p0-0-0-3-x-x-x-x-|
d-3p0-----3p0---3p0-0-0--0-x-x--x-3p0-----3p0---3p0-0-0-3-x-x-x-x-|

e-----------------------------------------------------------------|
b-----------------------------------------------------------------|
g-----------------------------------------------------------------|
d-----------------------------------------------------------------|
a-3p0-0h4-3p0---3p0-0-0--0-x-x--x-3p0-0h4-3p0---3p0-0-0-3-x-x---x-|
d-3p0-----3p0---3p0-0-0--0-x-x--x-3p0-----3p0---3p0-0-0-3-x-x---x-|

e------------------------|
b------------------------|
g------------------------|
d------------------------|
a-3p0-0h4-3p0------------|
d-3p0-----3p0------------|

5. Death Blooms

Tunning is : low to high: B F# B E G# C#


Intro 0:00                 (play 4 times)
|----------------------------------------|
|----------------------------------------|
|-----------------7-----7-----7----------|
|-------------------7-----7-----7--------|
|--3-2-2-3-2-2-0------7-----7------------|
|--3-2-2-3-2-2-0-------------------------|
      P.M..........

                           (play 4 times)   then..
|----------------------------------------||-------------------------------|
|----------------------------------------||-------------------------------|
|----------------------------------------||-------------------------------|
|----------------------------------------||-------------------------------|
|--0-7-8-0-7-8-0-7-8-0-5-0-3-5-2-0-------||--3\2-0-3/5-0-2/3-3-----3------|
|--0-7-8-0-7-8-0-7-8-0-5-0-3-5-2-0-------||--3\2-0-3/5-0-2/3---2-2---2-2--|

(0:25)
Verse (listen for placement) (play 3 times)   then..
|----------------------------------------||-------------------|
|----------------------------------------||-------------------|
|----------------------------------------||-------------------|
|----------------------------------------||-------------------|
|--3-----3-------------------------------||--3\2-0-3/5-0-2/3--|
|----2-2---2-2---------------------------||--3\2-0-3/5-0-2/3--|

(0:36)
Pre-Chorus                   (play 4 times)   then..
|----------------------------------------||-------------------------------|
|----------------------------------------||-------------------------------|
|----------------------------------------||-------------------------------|
|----------------------------------------||-------------------------------|
|--3-2-2-3-2-2-3-2-2-3-2-2-3-2-0-2-------||--3\2-0-3/5-0-2/3-3-----3------|
|--3-2-2-3-2-2-3-2-2-3-2-2-3-2-0-2-------||--3\2-0-3/5-0-2/3---2-2---2-2--| Back to verse


After verse play the first section of the pre-chorus one more time and then play this:
|------------------------------------|
|------------------------------------|
|------------------------------------|
|------------------------------------|
|--0-7-8-0-7-8-0-7-8-0-5-0-3-5-2-0---|
|--0-7-8-0-7-8-0-7-8-0-5-0-3-5-2-0---|

Chorus (1:14)                                                        (play 4 times)
|--------------------------------------------------------------------------------|
|--------------------------------------------------------------------------------|
|---7-----7--7--7--7--5--5--5--5-------------------------------------------------|
|---7-----7--7--7--7--5--5--5--5--/8--8--8--8------------------------------------|
|---5-----5--5--5--5--3--3--3--3--/8--8--8--8---0-7-8-0-7-8-0-7-8-0-5-0-3-5-2-0--|
|---------------------------------/8--8--8--8---0-7-8-0-7-8-0-7-8-0-5-0-3-5-2-0--|

D5 (1:34)
|------|
|------|
|------|
|--0^--|
|--0^--|
|--0^--| Bend and hold the Full note, then release


Bridge (1:38)                (play 2 times)
|----------------------------------------|
|----------------------------------------|
|----------------------------------------|
|----------------------------------------|
|--1-----------1-------------------------|
|----2-0-3-2-0---2-0-3-2-0-0---0-3-------|

   P.M..................	     P.M...... 	 (play 3 times)
|--------------------------------------------------------------|
|--------------------------------------------------------------|
|--------------------------------------------------------------|
|---------------------------------------------3-3--3--3-3-3----|
|--3---2-0-2-0-2-3---2-0-2-0---3---2-0-3-0-0--3-3--3--3-3-3----|
|--3---2-0-2-0-2-3---2-0-2-0---3---2-0-3-0-0--3-3--3--3-3-3----| Back to Bridge, Play 3 Times

|----------------------------------| |-------------------------------|
|----------------------------------| |--3---1---3--------------------|
|----------------------------------| |--2---0---0--------------------|
|--3-2-0-3-2-0-3-2-0-3-2-0--0--0---| |--0---2---0--------------------|
|--3-2-0-3-2-0-3-2-0-3-2-0--0--0---| |------3---2--------------------|
|--3-2-0-3-2-0-3-2-0-3-2-0--0--0---| |-------------3-0-0-3-0-0-3-0-0-|
                                     

(2:53)
|--------------------------------|
|--------------------------------|
|--------------------------------|
|--------------------------------|
|--3-0-0-3-0-0-3-0-0--0-0------8-|
|--3-0-0-3-0-0-3-0-0--0-0--0-0---| Repeat, Substitute the 8 for a 10 second time, then 3rd a 12
     P.M...................

 4th time play this
|----------------------------------|
|----------------------------------|
|----------------------------------|
|----------------------------------|
|--3-0-0-3-0-0-3-0-0----0----------|
|--3-0-0-3-0-0-3-0-0----0-LET-RING-| After this, Go back to Pre-Chorus. Into Chorus

(4:13) Outro
|--------------------------------------------------------------------------------------------|
|--------------------------------------------------------------------------------------------|
|--------------------------------------------------------------------------------------------|
|-----------------------------------------------------------4--------------------------------|
|-----------------------------------------------------------3---3--0--0--3--5--0--0--3/5-3\5-|
|--0--0-----0-----0-----0-----0-----0--3--2------0------0-------3--0--0--3--5--0--0--3/5-3\5-|

6. Golden Ratio

Interlude

7. Cradle

Drop B:
B F# B E G# C#


Intro: (0:00) w/ flanger
x12
e--------------------------------------------------|
b-------------------------------------15-15-15-15--|
g--------------------------------------------------|
d-13p12-12-13p12-12-13p12-12-13p12-12--------------|
a--------------------------------------------------|
d--------------------------------------------------|

(0:36)
x4
e---------------------------------------|
b---------------------------------3-----|
g---------------------------------2-----|
d---------------------------------0-----|
a-1p0-0-1p0-0--0-----x-1p0-0-1p0--------|
d-1p0-0-1p0-0--0-----x-1p0-0-1p0--------|

Verse: (0:48)
x8
e--------------------------------------------------|
b-------------------------------------15-15-15-15--|
g--------------------------------------------------|
d-13p12-12-13p12-12-13p12-12-13p12-12--------------|
a--------------------------------------------------|
d--------------------------------------------------|

(1:12)
x4
e---------------------------------------|
b---------------------------------3-----|
g---------------------------------2-----|
d---------------------------------0-----|
a-1p0-0-1p0-0--0-----x-1p0-0-1p0--------|
d-1p0-0-1p0-0--0-----x-1p0-0-1p0--------|

(1:24)
x4
e-----------------------------------------------------------------|
b-----------------------------------------------------------------|
g-----------------------------------------------------------------|
d-----------------------------------------------------------------|
a-----------------------------------------------------------------|
d-0h1--0------0h1-0-------0h1-0h1-0h1--0------0h1-0-------0h1-0h1-|

(1:36)
x4
e-----------------------------------------------------------------|
b-----------------------------------------------------------------|
g-----------------------------------------------------------------|
d-------------------5/7---7/8-------------------------------------|
a-4p3-0-3p0-0-3/4-0-3/5-0-5/6----4p3p0-3----x-x-x-3/5---x-5/6---x-|
d-4p3p0-3p0-0-3/4-0-----0--------4p3p0-3----x-x-x-3/5---x-5/6---x-|

(1:55)
x6
e-----------------------------------------------------------------|
b-----------------------------------------------------------------|
g-----------------------------------------------------------------|
d-----------------------------------------------------------------|
a-----------------------------------------------------------------|
d-0h1--0------0h1-0-------0h1-0h1-0h1--0------0h1-0-------0h1-0h1-|

(2:13)
x2
e-----------------------------------------------------------------|
b-----------------------------------------------------------------|
g-----------------------------------------------------------------|
d-----------------------------------------------------------------|
a-------------3-----5-----6-5-----------------3-----5-----6-5-----|
d-0h1h2-0h3h4---4p3---4p3-----4b--0h1h2-0h3h4---4p3---4p3-----4b--|

(2:24)
x4, pm
e--------------------------------------------------|
b--------------------------------------------------|
g--------------------------------------------------|
d-17-17-17-17-17-17-17-17-17-17-17-17-17-17-17-17--|
a-15-15-15-15-15-15-15-15-15-15-15-15-15-15-15-15--|
d--------------------------------------------------|

(2:35)
x2
e-----------------------------------------------------------------|
b-----------------------------------------------------------------|
g-----------------------------------------------------------------|
d-----------------------------------------------------------------|
a-0h1h2-0-3h4-3h4-3-5-4-3-6-5---4-0h1h2-0-3h4-3h4-3-5-4-3-6-5---4-|
d-0h1h2-0-3h4-3h4-3-5-4-3-6-5---4-0h1h2-0-3h4-3h4-3-5-4-3-6-5---4-|

(2:45)
x2, pm
e-----------------------------------------------------------------|
b-----------------------------------------------------------------|
g-----------------------------------------------------------------|
d-----------------------------------------------------------------|
a-------------3-------------------------------3-------------------|
d-0-1-2-0-3-4---4-3-5-4-3-6-5---4-0-1-2-0-3-4---4-3-5-4-3-6-5---4-|

(2:56)                              (3:05)
x3,pm
e---------------------------------  ------------------------------|
b---------------------------------  ------------------------------|
g---------------------------------  ------------------------------|
d---------------------------------  ------------------------------|
a-0----3-----5----0---0--5-6---0--  -0----3-----5--x-x-----0h3/---|
d-0----3-----5----0---0--5-6---0--  -0----3-----5--x-x-----0h3/---|

(3:08)                              (3:17)
x3
e---------------------------------  ------------------------------|
b---------------------------------  ------------------------------|
g---------------------------------  ------------------------------|
d---------------------------------  ------------------------------|
a-0----3-----5----0---0--5/6---0--  -0----3-----5--x-x-----0-0----|
d-0----3-----5----0---0--5/6---0--  -0----3-----5--x-x-----0-0----|

e-----------------------------------------------------------------|
b-----------------------------------------------------------------|
g-----------------------------------------------------------------|
d------------------------------------------------5----------------|
a-0----3-----5----0---0--5/6---0---0----3-----5--3--5--3--5--3--2-|
d-0----3-----5----0---0--5/6---0---0----3-----5-----5--3--5--3--2-|

e-----------------------------------------------------------------|
b-----------------------------------------------------------------|
g-----------------------------------------------------------------|
d-----------------------------------------------------------------|
a-0----3-----5----0---0--5/6---0---0----3-----5--x-x-----0-0------|
d-0----3-----5----0---0--5/6---0---0----3-----5--x-x-----0-0------|

(3:33)
x2
e--------------------------------------------------|
b-------------------------------------15-15-15-15--|
g--------------------------------------------------|
d-13p12-12-13p12-12-13p12-12-13p12-12--------------|
a--------------------------------------------------|
d--------------------------------------------------|

Verse 2: (3:39)
x8
e--------------------------------------------------|
b-------------------------------------15-15-15-15--|
g--------------------------------------------------|
d-13p12-12-13p12-12-13p12-12-13p12-12--------------|
a--------------------------------------------------|
d--------------------------------------------------|

(4:03)
x8
e---------------------------------------|
b---------------------------------3-----|
g---------------------------------2-----|
d---------------------------------0-----|
a-1p0-0-1p0-0--0-----x-1p0-0-1p0--------|
d-1p0-0-1p0-0--0-----x-1p0-0-1p0--------|

(4:27)
e----------------------------------------------|
b----------------------------------------------|
g----------------------------------------------|
d----------------------------------------------|
a----------------------------------------------|
d-0h1-0--0h1-0--0h1-0h1-0h1-0--0h1-0--0h1-0h1--|

(4:30)
x4
e----------------------------------------------|
b----------------------------------------------|
g----------------------------------------------|
d----------------------------------------------|
a-0h1-0--0h1-0--0h1-0h1-0h1-0--0h1-0--0h1-0h1--|
d-0h1-0--0h1-0--0h1-0h1-0h1-0--0h1-0--0h1-0h1--|

(4:42)
pm
e-----------------------------------------------------------------|
b-----------------------------------------------------------------|
g-----------------------------------------------------------------|
d-----------------------------------------------------------------|
a-----------------------------------------------------------------|
d-5-4-3-0-4-3-0-0-5-4-3-0-4-3-0-0-5-4-3-0-4-3-0-0-5-4-3-0-4-3-0-0-|

(4:48)
x4
e-----------------------------------------------------------------|
b-----------------------------------------------------------------|
g-----------------------------------------------------------------|
d-------------------5/7---7/8-------------------------------------|
a-4p3-0-3p0-0-3/4-0-3/5-0-5/6----4p3p0-3----x-x-x-3/5---x-5/6---x-|
d-4p3p0-3p0-0-3/4-0-----0--------4p3p0-3----x-x-x-3/5---x-5/6---x-|

Outro: (5:07)
pm
e-----------------------------------------------------------------|
b-----------------------------------------------------------------|
g-----------------------------------------------------------------|
d-----------------------------------------------------------------|
a-----------------------------------------------------------------|
d-5-4-3-0-4-3-0-0-5-4-3-0-4-3-0-0-5-4-3-0-4-3-0-0-5-4-3-0-4-3-0-0-|

(5:12)
e-------------------------------|
b-------------------------------|
g-------------------------------|
d-------------------------------|
a-0h1--0----0h1-0----0h1-0------|
d-0h1--0----0h1-0----0h1-0------|

8. Nothing to Gein

Tuning:(B,F#,B,E,G#,C#)

CHORUS:
|-------------------------------------------------------------------|
|-------------------------------------------------------------------|
|---------------------7-7-7-7-7-7-----5-5-5-5-5-----5-5-5-5-5-5-5-5-|
|-2/3-0-0-2-0-0-2-3-6-6-6-6-6-6-6-0-3-3-3-3-3-3-5-3-2-2-2-2-2-2-3-3-|
|-2/3-0-0-2-0-0-2-3-5-5-5-5-5-5-5-0-3-3-3-3-3-3-5-3-3-3-3-3-3-3-3-3-|
|-2/3-0-0-2-0-0-2-3-6-6-6-6-6-6-6-0-3-3-3-3-3-3-5-3-2-2-2-2-2-2-3-3-|

INTRO:
|-----------------|
|-----------------|
|-----------------|
|-7-7-7-7-7-7-7-7-|
|-5-5-5-5-5-5-5-5-|
|-----------------|

VERSE: (just dead strings with wah)

VERSE B:
|-----------------------------------------------|
|-----------------------------------------------|
|-----------------------------------------------|
|-10-10-10-10-10-10--10--10-10-10-11-10-9-9-9-9-|
|--8--8--8--8--8--8---8---8--8--8--9--8-7-7-7-7-|
|-----------------------------------------------|

VERSE C:
|---------------------------------------------------------------|
|---------------------------------------------------------------|
|-------------------4--------------------4--------------------4-|
|-0h2-0-0-0h2-0-0-0-4--0h2-0-0-0h2-0-0-0-4--0h2-0-0-0h2-0-0-0-4-|
|-0h2-0-0-0h2-0-0-0-2--0h2-0-0-0h2-0-0-0-2--0h2-0-0-0h2-0-0-0-2-|
|-0h2-0-0-0h2-0-0-0----0h2-0-0-0h2-0-0-0----0h2-0-0-0h2-0-0-0---|

|---------------|
|---------------|
|---------------|
|-0h2-0-0-0h2-0-|
|-0h2-0-0-0h2-0-|
|-0h2-0-0-0h2-0-|

BRIDGE:
|---------------------|
|---------------------|
|-10p9------10p9------|
|------10p9------10p9-|
|---------------------|
|---------------------|

INTERLUDE:
|------------------------------------|
|------------------------------------|
|---------------------------7-----10-|
|-0-0-0-0-0-0--0--0-0-0-0-0-7-0-0-10-|
|-0-0-0-0-0-0--0--0-0-0-0-0-5-0-0--8-|
|-0-0-0-0-0-0--0--0-0-0-0-0---0-0----|

9. Mutatis Mutandis

Interlude

10. Everything and Nothing

Drop B:
B F# B E G# C#


Intro: Drums, then

Verses: (0:17)-(0:45)

Fig. 1 x4

e-------------------------------------------------------------|
b-------------------------------------------------------------|
g-------7---7-7---------7--7/8--------7---7-7---------7--7/8--|
d-0--0------------0---0---------0--0------------0---0---------|
a-------------------------------------------------------------|
d-------------------------------------------------------------|

Chorus: (0:36)
x2
e-------------------------------------------------------------|
b-------------------------------------------------------------|
g-------7---7-7---------7--7/8--------7---7-7---------7--7/8--|
d-------x---x-x---------x--x-x--------x---x-x---------x--x-x--|
a-------5---5-5---------5--5/6--------5---5-5---------5--5/6--|
d-0--0------------0---0---------0--0------------0---0---------|

Chorus 2: (1:05)
x4
e-------------------------------------------------------------|
b-------------------------------------------------------------|
g-------7---7-7---------7--7/8--------7---7-7---------7--7/8--|
d-------x---x-x---------x--x-x--------x---x-x---------x--x-x--|
a-------5---5-5---------5--5/6--------5---5-5---------5--5/6--|
d-0--0------------0---0---------0--0------------0---0---------|

(1:24)
e----------------------------------|
b----------------------------------|
g-7-7-7-7-----9-9-9-9----1010------|
d-8-8-8-8-----8-8-8-8-----8-8------|
a-5-5-5-5-----7-7-7-7-----8-8------|
d----------------------------------|

(1:26)
x4
e-----------------------------------------------------------------|
b-----------------------------------------------------------------|
g-----------------------------------------------------------------|
d-4-------------------------------4-------------------------------|
a-2-3\2-0-----2p0-0---2/3-2-0-----2-3\2-0-----2p0-0---2/3-2-0-----|
d---3\2-0-----2p0-0---2/3-2-0-------3\2-0-----2p0-0---2/3-2-0-----|

(1:46)

x7
e-------------------------------------------------------------|
b-------------------------------------------------------------|
g-------7---7-7---------7--7/8--------7---7-7---------7--7/8--|
d-0--0------------0---0---------0--0------------0---0---------|
a-------------------------------------------------------------|
d-------------------------------------------------------------|

(2:22)
e-----------------------------------------------------------------|
b---------------------------------------------------------3-------|
g-------7---7-7---------7--7/8--7h8p7p5-7-----5-------2-----------|
d-0--0------------0---0--------------------8------7---------------|
a-----------------------------------------------------------------|
d-----------------------------------------------------------------|

(2:26)
e----------------------------------|
b-3----3---------------------------|
g-2----2---------------------------|
d-0----0-----8-----8-----3---3-----|
a-0----------8-----8-----3---3-----|
d-0----------8-----8-----3---3-----|

Chorus 3: (2:29)-(2:41)

x2
e-------------------------------------------------------------|
b-------------------------------------------------------------|
g-------7---7-7---------7--7/8--------7---7-7---------7--7/8--|
d-------x---x-x---------x--x-x--------x---x-x---------x--x-x--|
a-------5---5-5---------5--5/6--------5---5-5---------5--5/6--|
d-0--0------------0---0---------0--0------------0---0---------|

(2:38)
e----------------------------------|
b----------------------------------|
g10---------------------10---------|
d-x----------8-----------x---------|
a-8----------8-----------8---------|
d------0-----8------0--------0-----|

(2:50)
e----------------------------------|
b----------------------------------|
g-7-7-7-7-----9-9-9-9----1010------|
d-8-8-8-8-----8-8-8-8-----8-8------|
a-5-5-5-5-----7-7-7-7-----8-8------|
d----------------------------------|

Outro: (2:53)
x4
e-----------------------------------------------------------------|
b-----------------------------------------------------------------|
g-----------------------------------------------------------------|
d-4-------------------------------4-------------------------------|
a-2-3\2-0-----2p0-0---2/3-2-0-----2-3\2-0-----2p0-0---2/3-2-0-----|
d---3\2-0-----2p0-0---2/3-2-0-------3\2-0-----2p0-0---2/3-2-0-----|

(3:12)
e-----------------------------|
b-----------------------------|
g-----------------------------|
d-----------------------------|
a-0--0--3---0-0----3---0-3-0--|
d-0--0--3---0-0----3---0-3-0--|

11. Severed

Tuning: Drop D, Down 1 1/2 Steps (B,F#,B,E,G#,C#)
~ - vibration
<> - harmonics
*  - palm mute

INTRO:
|----------------------------------------------|
|-----16---------------------------------------|
|---15--15-15-15-15-15-15-15-15-14-14-14-14-14-|
|-14-------0--0--0--0--0--0--0--0--0--0--0—-0--|
|----------0--0--0--0--0--0--0--0--0--0--0--0--|
|----------------------------------------------|

INTRO 2:
|-------------------------------------------------------------------|
|----------------16-------------------------------16----------------|
|-------------15----15-14-14-14-14-------------15----15-14-14-14-14-|
|-1--0--1--14-----------0--0--0--0-1—-0--1--14-----------0--0--0--0-|
|-1--0--1---------------0--0--0--0-1—-0—-1---------------0--0--0--0-|
|-1--0--1--------------------------1--0—-1--------------------------|

|------------------------------------|
|------------------------------------|
|------------------------------------|
|-1--0--1-------------------1--0--1--|
|-1--0--1--0-0-0-0-0-0-0-0--1--0--1--|
|-1--0--1--0-0-0-0-0-0-0-0--1--0--1--|
           * * * * * * * *
VERSE: (palm mute)
|-----------------|
|-----------------|
|-----------------|
|-0-0-0--00-0-0-0-|
|-0-0-0--00-0-0-0-|
|-0-0-0--00-0-0-0-|
  * * *  ** * * *

BRIDGE:
|----------------------------------------|
|----------------------------------------|
|----------------------------------------|
|-1-1--1-1--1-1--1-1--3-3--3-3--3-3--3-3-|
|-1-1--1-1--1-1--1-1--3-3--3-3--3-3--3-3-|
|-1-1--1-1--1-1--1-1--3-3--3-3--3-3--3-3-|

FILL: (palm mute)
|-----------------|
|-----------------|
|-----------------|
|-0-0-0-0-0-0-0-0-|
|-0-0-0-0-0-0-0-0-|


|-0-0-0-0-0-0-0-0-|
  * * * * * * * *

CHORUS:
|--------------------------------------------------------|
|--------------------------------------------------------|
|--------------------------------------------------------|
|--------------------------------------------------------|
|-8-8-8-8-10-8-8-8-8-8-8-10-8-8--8-7-5-8-8-8-10-8-11\\10-|
|-8-8-8-8-10-8-8-8-8-8-8-10-8-8--------8-8-8-10-8--------|

|----------------------|
|----------------------|
|----------------------|
|----------------------|
|-8-8-8-8--8\\7\\5-8-8-|
|-8-8-8-8--------8-8---|

VERSE 2:
|------------------|
|------------------|
|----14----14------|
|-15----15----14~~-|
|------------------|
|------------------|

FILL 2:
|-------|
|-------|
|-------|
|-X-<3>-|
|-X-----|
|-X-----|

FILL 3:
|-----|
|-----|
|-----|
|-----|
|-----|
|-1/8-|

INTERLUDE:
|----------------------------------------------------------------------|
|---------------------------------------------------6-6----------------|
|---4-5-4-7-----------------4-5---------------4-5-7------------------5-|
|-0-------------3-2-2-2-2-0---------0-2-2-2-0-------------<3>--<3>---5-|
|-0---------2/3-3-2-2-2-2-0-----2/3-0-2-2-2-0-----------00---00---00-3-|
|-0-------------3-2-2-2-2-0---------0-2-2-2-0-----------00---00---00---|
                * * * * *           * * * *             **   **   **

FILL 4:
|---|
|---|
|---|
|-5-|
|-5-|
|-5-|

INTERLUDE 2: guitar with effects
|-------------------------------------|
|-------------------------------------|
|-6\\5-5-5-5-5-5-5-6\\5-5-5-5-5-10/12-|
|-X-X-X-X-X-X-X-X-X-X-X-X-X-X--X--X---|
|-4\\3-3-3-3-3-3-3-4\\3-3-3-3-3--8/10-|
|-------------------------------------|

INTERLUDE 2:
|-----------------------------------------------------------------|
|-----------------------------------------------------------------|
|-----------------------------------------------------------------|
|-0-0-0-0-0--0-0-0-0-0--0-0-0-0-0-0-0-0-0-0--0-0-0-0-0--0-0-0-0-0-|
|-0-0-0-0-0--0-0-0-0-0--0-0-0-0-0-0-0-0-0-0--0-0-0-0-0--0-0-0-0-0-|
|-0-0-0-0-0--0-0-0-0-0--0-0-0-0-0-0-0-0-0-0--0-0-0-0-0--0-0-0-0-0-|

FILL 5:
|----|
|----|
|----|
|-10-|
|-10-|
|-10-|

INTERLUDE 3: guitar with delay
|-----------------------------------------------|
|-----------------------------------------------|
|-----------------------------------------------|
|-----10---11-10--------------10--11-10---------|
|---10--10------10-11p10\\8--10--10-----10/11---|
|-11----------------------10--------------------|

INTERLUDE 3:
|---------------|
|---------------|
|---------------|
|-11-11---10-10-|
|-11-11---10-10-|
|-11-11---10-10-|

INTERLUDE 3 FILL: guitar with delay
|----------------------------|
|----------------------------|
|----------------------------|
|-----10---11-13-11----------|
|---10--10----------11p10\\8-|
|-11-------------------------|

FILL 6: palm mute with gradual release
|-------------------------------------------------|
|-------------------------------------------------|
|-------------------------------------------------|
|-10-10-10-10-10-10-10-10-10-10-10-10-10-10-10-10-|
|-10-10-10-10-10-10-10-10-10-10-10-10-10-10-10-10-|
|-10-10-10-10-10-10-10-10-10-10-10-10-10-10-10-10-|

12. Recombinant Resurgance

Interlude

13. Prod

Intro: (0:00) (h2) w/ left hand

Fig. 1 x7

e-----------------------------------|
b-----------------------------------|
g-----------------------------------|
d-----------------------------------|
a-h2--x-x---x-h2--x-x---x-h2---x-x--|
d-h2--x-x---x-h2--x-x---x-h2---x-x--|

Verse 1: Fig. 1 x8 (0:18)
Verses 2,3,4&5: Fig. 1 x6, then

e----------------------------------------------------|
b----------------------------------------------------|
g----------------------------------------------------|
d----------------------------------------------------|
a-2---2-2--0--2-----0--2--0--2---0----2-----0--2--0--|
d-2---2-2--0--2-----0--2--0--2---0----2-----0--2--0--|

(1:20)-(2:27)
x3
e----------------------------------------------------|
b----------------------------------------------------|
g----------------------------------------------------|
d-5--5------5--5------5--5------5--5-----------------|
a-3--3------3--3------3--3------3--3-----------------|
d-2--2------2--2------2--2------2--2-----------------|

(2:43)
x8
e-------------------------------------------------------------|
b-------------------------------------------------------------|
g-----4---4/5\4------4---4/5\4------4---4/5\4------4----------|
d-------------------------------------------------------------|
a-------------------------------------------------------3-----|
d-0h2---2--------0h2---2--------0h2---2--------0h2---2--3-----|

(3:31)
x4
e---------------------------------|
b---------------------------------|
g---------------------------------|
d-----------------------------3---|
a---------------------------------|
d-2---2-2---2-2br-2-2br-2-2-2-----|

(3:43)
x2
e-----------------------------------------------------------------|
b-----------------------------------------------------------------|
g-----------------------------------------------------------------|
d-----------------------------------------------------------------|
a-2---2-2---2-2---2-2---2-2-2--3--2---2-2---2-2---2-2---2-2-2--3--|
d-2---2-2---2-2---2-2---2-2-2--3--2---2-2---2-2---2-2---2-2-2--3--|

e-----------------------------------------------------------------|
b-----------------------------------------------------------------|
g-----------------------------------------------------------------|
d-----------------------------------------------------------------|
a-2---2-2---2-2---2-2---2-2-2--3--2---2-2---2-2---2-2---2-3-3-----|
d-2---2-2---2-2---2-2---2-2-2--3--2---2-2---2-2---2-2---2-3-3-----|

(4:07)
x10
e-------------------------------------|
b-------------------------------------|
g--------------------------------5----|
d--------------------------------3----|
a--------------------------------3----|
d-2---2-2---2-2br-2-2---3--2-2---3----|

(4:37) w/ chorus effect

e-----------------------------------------------------------------------------|
b-----------------------------------------------------------------------------|
g-9-9---9--9--9--/16-17\16\12-14h16-12h14--10---9--9--9--/17\--9--14h16p14-14-|
d-0-0---0--0--0-----------------------------0------0--0-----------------------|
a-0-0---0--0--0-----------------------------0------0--0-----------------------|
d-0-0---0--0--0-----------------------------0------0--0-----------------------|

e-----------------------------------------------------------------|
b-----------------------------------------------------------------|
g------------------------------5-------------------------------5--|
d------------------------------3-------------------------------3--|
a-2---2-2---2-2---2-2--2--2-2--3--2---2-2---2-2---2-2--2--2-2--3--|
d-2---2-2---2-2---2-2--2--2-2--3--2---2-2---2-2---2-2--2--2-2--3--|

e-8---8----8---7---5------------------------------------|
b-x---x----x---x---x------------------------------------|
g-5---5----5---4---2--------12------12--11--------11p9--|
d---------------------/10--------9---9---9------7-------|
a-------------------------------------------------------|
d-------------------------------------------------------|

(4:55)
x11
e--------------------|
b--------------------|
g----------0---------|
d----------4---------|
a-2--2--------3--0---|
d-2--2--------3--0---|

(5:10)
let ring

e-------------------------------------------------------|
b-------------------------------------------------------|
g-------------------------------------------------------|
d-------------------------------------------------------|
a-2-----------------------------------------------------|
d-2-----------------------------------------------------|

(5:20)
Fig. 1 x6 then,

e-------------------------------------------------------|
b-------------------------------------------------------|
g-------------------------------------------------------|
d-------------------------------------------------------|
a-2---2-0---0-2--2--0--2--0--2---2-0---0-2--2--0--2--0--|
d-2---2-0---0-2--2--0--2--0--2---2-0---0-2--2--0--2--0--|

Outro: (5:40)

x3
e----------------------------------------------------|
b----------------------------------------------------|
g----------------------------------------------------|
d-5--5------5--5------5--5------5--5-----------------|
a-3--3------3--3------3--3------3--3-----------------|
d-2--2------2--2------2--2------2--2-----------------|

14. Pharmacopia

Tuning: Drop D, Down 1 1/2 Steps (B,F#,B,E,G#,C#)

^(n) - bend 1/2 step and release

INTRO:
|-------------------------------------------------|
|-5-5^(5)---------------------5-5-----------------|
|-------------------------------------------------|
|---------0-0--0--0-6-0-0-0-0-----0-0--0--0-6-0-0-|
|---------0-0--0--0-6-0-0-0-0-----0-0--0--0-6-0-0-|
|---------0-0--0--0-6-0-0-0-0-----0-0--0--0-6-0-0-|

BRIDGE:
|--------------------------------------|
|--------------------------------------|
|--------------------------------------|
|-0-0-6-5-0--2-0--7-6-0--2p0-2p0-0-6-5-|
|-0-0-6-5-0--2-0--5-6-0--2p0-2p0-0-6-5-|
|-0-0-6-5-0--2-0----6-0--2p0-2p0-0-6-5-|

FILL:
|-------------------------------------------|
|---5-5-5-5-5-5-5-5-5-5---------------------|
|-------------------------------------------|
|-0-------------------------------------3-0-|
|-0---------------------0-0-0-0-2-2-2-2-1---|
|-0---------------------0-0-0-0-2-2-2-2-----|

VERSE 1:
|--------------------------------------------------------a--|
|----------------------------------------14-----------------|
|-----------------------6-----------------X-----------------|
|-----------------------X----------------11-9/10\\9---------|
|----------<5>--2/3-2/3-4-------------------7/8 \\7-12-8----|
|-0010-0030---3-2/3-2/3---0010-0000-0000-----------12-8-----|

|-----------------------------------------------------|
|-----------------------------------------------------|
|---------6-----------------------6-------------------|
|---------X-----------------------X-------------------|
|-2/3-2/3-4---------<5>---2/3-2/3-4-----8p7-7-7-7p5-5-|
|-2/3-2/3---0000-003---3--2/3-2/3---000---------------|

CHORUS:
|-------------------------|
|-------------------------|
|-------------------------|
|-3-2-0-0--3-2-0-0--3-2-0-|
|-3-2-0-0--3-2-0-0--3-2-0-|
|-3-2-0-0--3-2-0-0--3-2-0-|

VERSE 2:
|----------------------------------------------------------|
|----------------------------------------14----------------|
|-----------------------6-----------------X----------------|
|-----------------------X----------------11-9/10\\9--------|
|----------<5>--2/3-2/3-4-------------------7/8 \\7-12-8---|
|-0010-0030---3-2/3-2/3---0010-0000-0000-----------12-8----|

|---------------------------------------------------------------|
|---------------------------------------------------------------|
|----------------------------------------6----------------------|
|----------------------------------------X----------------------|
|-2/3p0-2/3p0-2/3----------<5>---2/3-2/3-4-----12p8-8-8-8h10-10-|
|-2/3p0-2/3p0-2/3--0000-003---3--2/3-2/3---000------------------|

FILL 2:
|-----------------------------------------------------------------|
|-----------------------------------------------------------------|
|-----------------------------------------------------------------|
|-3-2-3-0--3-2-3-2-3-0--3-2-3-0--3-2-3-2-0-2-3-5-10-10-10-10-10-0-|
|-3-2-3-0--3-2-3-2-3-0--3-2-3-0--3-2-3-2-0-2-3-5--8--8--8--8--8-0-|
|-3-2-3-0--3-2-3-2-3-0--3-2-3-0--3-2-3-2-0-2-3-5--8--8--8--8--8-0-|

INTERLUDE:
|-----------------------------|    |-------------------|
|-----------------------------|play|-------------------|
|-----------------------------| 3X |-------------------|
|-10-10-10-10-10-0-7-8\\77-7-7-|then|-10-10-10-10-10-0-|
|--8--8--8--8--8-0-5-6\\55-5-5-|    |--8--8--8--8--8-0-|
|--8--8--8--8--8-0------------|    |---8--8--8--8--8-0-|

FILL 3:
|-------------|
|-------------|
|-------------|
|-8-0-3-0-235-|
|-8-0-3-0-235-|
|-8-0-3-0-235-|

INTERLUDE 2:
|---------------------------|
|---------------------------|
|---------------------------|
|-7-7-8-7-10-7-0--0-1p0-0-0-|
|-8-8-8-8--8-8-0--0-1p0-0-0-|
|-8-8-8-8--8-8-0--0-1p0-0-0-|

INTERLUDE 3:
|------------------|
|------------------|
|------------------|
|-10-9--8-7----8-7-|
|------------------|
|------------------|

INTERLUDE 3B:
|---------------------------|
|---------------------------|
|---------------------------|
|-9-10--10-12--12-13--10-12-|
|---------------------------|
|---------------------------|

FILL 4:
|-------------------------|
|-------------------------|
|-------------------------|
|---------3-------------3-|
|-1p0-0-0-1-0-0-1p0-0-0-1-|
|-1p0-0-0---0-0-1p0-0-0---|

INTERLUDE 4:
|------------------------------------------------------|
|------------------------------------------------------|
|------------------------------------------------------|
|-------------------------3--------------------------3-|
|-1-0-0-0-1-0-0-0-1-0-0-0-1--1-0-0-0-1-0-0-0-1-0-0-0-1-|
|-1-0-0-0-1-0-0-0-1-0-0-0----1-0-0-0-1-0-0-0-1-0-0-0---|

FILL 5:
|---------------------------------------------------|
|---------------------------------------------------|
|---------------------------------------------------|
|-3-2-3-0--3-2-3-2-3-0--3-2-3-0--3-2-3-2-0--2-3-5-7-|
|-3-2-3-0--3-2-3-2-3-0--3-2-3-0--3-2-3-2-0--2-3-5-7-|
|-3-2-3-0--3-2-3-2-3-0--3-2-3-0--3-2-3-2-0--2-3-5-7-|

INTERLUDE:
|----------------|
|----------------|
|----------------|
|-7-7-8-7-10-7-0-|
|-8-8-8-8--8-8-0-|
|-8-8-8-8--8-8-0-|

15. Under My Skin

Drop B:
B F# B E G# C#


Intro: (0:00)-(0:50)
x3
e---------------------------------------------------------------|
b---------------------------------------------------------------|
g---------------------------------------------------------------|
d---------------------------------------------------------------|
a-1-1-0---0---3-3--0--0--3h5--0--1-1-0---0---3-3--0--0--3h5--0--|
d-3-3-0---0---3-3--0--0--3h5--0--3-3-0---0---3-3--0--0--3h5--0--|

e---------------------------------------------------------------|
b---------------------------------------------------------------|
g---------------------------------------------------------------|
d---------------------------------------------------------------|
a-1-1-0---0---3-3--0--0--3h5--0--1-1-0---0---5-3--0-------------|
d-3-3-0---0---3-3--0--0--3h5--0--3-3-0---0---5-3--0-------------|

Verses: (0:18)-(1:06)
x2
e------------------------------------|
b-------6----------------6-----------|
g---4--------4-------4--------4------|
d-----3--------3-------3--------3----|
a------------------------------------|
d-0----------------0-----------------|

e------------------------------------|
b-------9----------------9-----------|
g---7--------7-------7--------7------|
d-----6--------6-------6--------6----|
a------------------------------------|
d-0----------------0-----------------|

Chorus: (0:34)-(1:21)
x4
e-----------------------------------------------------------------|
b-----------------------------------------------------------------|
g-----------------------------------------------------------------|
d-----------------------------------------------------------------|
a-3p0-3p0-----3p0-3p0-----3p0-3p0-3p0-3p0-----3p0-3p0-----3p0-3p0-|
d-3p0-3p0-----3p0-3p0-----3p0-3p0-3p0-3p0-----3p0-3p0-----3p0-3p0-|

(1:38)
x3
e-----------------------------------------------------------------|
b-----------------------------------------------------------------|
g-----------------------------------------------------------------|
d-----------------------------------------------------------------|
a-----------------------------------------------------------------|
d-0h3h4-0h5h6-0h7h8-0h3h4-0h5h6---0h3h4-0h5h6-0h7h8-0h3h4-0h5h6---|

(1:50) Bass & Drums

(2:05)
e-------------|
b-------------|
g-------------|
d-------------|
a-0-0-0--0-0--|
d-0-0-0--0-0--|

(2:14)
x4
e-----------------------------------------------------------------|
b-----------------------------------------------------------------|
g-----------------------------------------------------------------|
d-----------------------------------------------------------------|
a-6-5-0-5-0-0-5-6-0-5-6-0-6-8-----6-5-0-5-0-0-5-6-0-5-6-0-6-8-----|
d-6-5-0-5-0-0-5-6-0-5-6-0-6-8-----6-5-0-5-0-0-5-6-0-5-6-0-6-8-----|

e---------------|
b---------------|
g---------------|
d---------------|
a-0-x--0--0--0--|
d-0----0--0--0--|

x3
e---------------------------------------------------------------|
b---------------------------------------------------------------|
g---------------------------------------------------------------|
d---------------------------------------------------------------|
a-1-1-0---0---3-3--0--0--3h5--0--1-1-0---0---3-3--0--0--3h5--0--|
d-3-3-0---0---3-3--0--0--3h5--0--3-3-0---0---3-3--0--0--3h5--0--|

e---------------------------------------------------------------|
b---------------------------------------------------------------|
g---------------------------------------------------------------|
d---------------------------------------------------------------|
a-1-1-0---0---3-3--0--0--3h5--0--1-1-0---0---5-3--0-------------|
d-3-3-0---0---3-3--0--0--3h5--0--3-3-0---0---5-3--0-------------|

Mini Solo: trem pick all w/ wah (2:48)

x2
e------------------------------------------------|
b-13h15---15---15---15---13h15---15---15b--15b---|
g------------------------------------------------|
d------------------------------------------------|
a------------------------------------------------|
d------------------------------------------------|

e------------------------------------------15----|
b-13h15---15---15---15---13h15---15---15---------|
g------------------------------------------------|
d------------------------------------------------|
a------------------------------------------------|
d------------------------------------------------|

(3:06)
pm top string
e-------------------------------------------------------|
b-------------------------------------------------------|
g-------5-4---------5-4-x----------5-4----------5-4-x---|
d-------x-x---------x-x-x----------x-x----------x-x-x---|
a-------3-2---------3-2------------3-2----------3-2-----|
d-3-2-0-------3-2-0----------3-2-0--------3-2-0---------|

e-------------------------------------------------------|
b-------------------------------------------------------|
g-------5-4---------5-4-x----------5-4----------5-4-----|
d-------x-x---------x-x-x----------x-x----------x-x-----|
a-------3-2---------3-2------------3-2----------3-2-----|
d-3-2-0-------3-2-0----------3-2-0--------3-2-0---------|

(3:14)
x7
e-----------------------------------------------------------------|
b-----------------------------------------------------------------|
g-----------------------------------------------------------------|
d-----------------------------------------------------------------|
a-3p0-3p0-----3p0-3p0-----3p0-3p0-3p0-3p0-----3p0-3p0-----3p0-3p0-|
d-3p0-3p0-----3p0-3p0-----3p0-3p0-3p0-3p0-----3p0-3p0-----3p0-3p0-|

then,

e-----------------------------------------------------------------|
b-----------------------------------------------------------------|
g-----------------------------------------------------------------|
d-----------------------------------------------------------------|
a-3p0-3p0-----3p0-3p0-----3p0-3p0-3p0-3p0-----3p0-3p0-------------|
d-3p0-3p0-----3p0-3p0-----3p0-3p0-3p0-3p0-----3p0-3p0-------------|

16. (K)now F(orever)

Drop B:
B F# B E G# C#

* = trem pick

Intro: (0:00) pm

e-----------------------------------------------------------------|
b-----------------------------------------------------------------|
g-----------------------------------------------------------------|
d-----------------------------------------------------------------|
a---------2---------------2-----------2-------------------2-------|
d-3-3-3-3---3-----3-3-3-3---3-3-3-3-3---3---------3-3-3-3---3-3-3-|

e-------------------------------------------------|
b-------------------------------------------------|
g-------------------------------------------------|
d-------------------------------------------------|
a-----2-------------------2-------------2---------|
d-3-3---3---------3-3-3-3---3-3-3-3-3-3---3-------|

(0:09) x2

e-----------------------------------------------------------------|
b-----------------------------------------------------------------|
g-----------------------------------------------*19*12*-----------|
d---------------------------6-6-6-----------------------*19*12*---|
a---------2-----------2-----5-5-5---------2-----------------------|
d-3-3-3-3---3-3-3-3-3---3-0-------3-3-3-3---3---------------------|

e-----------------------------------------------------------------|
b-------------------------------------------------8/9\8/9-8/9\8/9-|
g-------------------------------------------------x-x-x-x-x-x-x-x-|
d---------------------------6-6-6-----------------5/6\5/6-5/6\5/6-|
a---------2-----------2-----5-5-5---------2-----------------------|
d-3-3-3-3---3-3-3-3-3---3-0-------3-3-3-3---3p0-------------------|

(0:31)

e-----------------------------------------------------------------|
b-0-------------------------------0-------------------------------|
g-5-------------------------------5-----------------------4-4-4-4-|
d---------------------------------------------------------x-x-x-x-|
a---6-0-5/6-0-6\5-0-0---0-0---0-0---6-0-5/6-0-6\5-0-0---0-2-2-2-2-|
d---6-0-5/6-0-6\5-0-0---0-0---0-0---6-0-5/6-0-6\5-0-0---0---------|

e-----------------------------------------------------------------|
b-0-------------------------------0-------------------------------|
g-5-------------------------------5-----------------------4-4-4-4-|
d---------------------------------------------------------x-x-x-x-|
a---6-0-5/6-0-6\5-0-0----0-0--------6-0-5/6-0-6\5-0-0---0-2-2-2-2-|
d---6-0-5/6-0-6\5-0-0----0-0--------6-0-5/6-0-6\5-0-0---0---------|

e---------------------------|
b---------------------------|
g-5-------------------------|
d-x-------------------------|
a-3-------------------------|
d---0---0---0--66-0---------|

Verse 1: (0:45) pm
x2
e-----------------------------------------------------------------|
b-----------------------------------------6-6---------6-6---------|
g-----------------------------------------4-4---------4-4---------|
d-----------------------------------------------------------------|
a-3h5-5-5-5-5-6-6-6-3-3-3-5-2-2-2-2-2-2-2-----2-2-2-2-----2-2-2-2-|
d-----------------------------------------------------------------|

(1:08)
e-----------------------------------------------------------------|
b-----------------------------------------------------------------|
g-----------------------------------------------------------------|
d-----------------------------------------9-----------9-----------|
a-3h5-5-5-5-5-6-6-6-3-3-3-5-2-2-2-8-8-8-8---8-8-8-8-8---8---------|
d-----------------------------------------------------------------|

(1:13)
x3
e-----------------------------------------------------------------|
b-----------------------------------------6-6---------6-6---------|
g-----------------------------------------4-4---------4-4---------|
d-----------------------------------------------------------------|
a-3h5-5-5-5-5-6-6-6-3-3-3-5-2-2-2-2-2-2-2-----2-2-2-2-----2-2-2-2-|
d-----------------------------------------------------------------|

(1:30)

x2
e-----------------------------------------------------------------|
b-----------------------------------------------------------------|
g---------------------------------4-4-4-4-4-4-----4-4-4-4---------|
d---------------------------------4-4-4-4-4-4-----4-4-4-4---------|
a-3h5-5-5-5-5-6-6-6-3-3-3-5-2-2-2-2-2-2-2-2-2-----2-2-2-2---------|
d-----------------------------------------------------------------|

Chorus: x2 (1:35)

e-----------------------------------------------------------------|
b-0-------------------------------0-------------------------------|
g-5-------------------------------5-----------------------4-4-4-4-|
d---------------------------------------------------------x-x-x-x-|
a---6-0-5/6-0-6\5-0-0---0-0---0-0---6-0-5/6-0-6\5-0-0---0-2-2-2-2-|
d---6-0-5/6-0-6\5-0-0---0-0---0-0---6-0-5/6-0-6\5-0-0---0---------|

e-----------------------------------------------------------------|
b-0-------------------------------0-------------------------------|
g-5-------------------------------5-----------------------4-4-4-4-|
d---------------------------------------------------------x-x-x-x-|
a---6-0-5/6-0-6\5-0-0----0-0--------6-0-5/6-0-6\5-0-0---0-2-2-2-2-|
d---6-0-5/6-0-6\5-0-0----0-0--------6-0-5/6-0-6\5-0-0---0---------|

Verse 2: (1:57) pm
x2
e-----------------------------------------------------------------|
b-----------------------------------------6-6---------6-6---------|
g-----------------------------------------4-4---------4-4---------|
d-----------------------------------------------------------------|
a-3h5-5-5-5-5-6-6-6-3-3-3-5-2-2-2-2-2-2-2-----2-2-2-2-----2-2-2-2-|
d-----------------------------------------------------------------|

(2:08)
e-----------------------------------------------------------------|
b-------12--------------------------------------------------------|
g----10-----------------------------------------------------------|
d-/9--------------------------------------------------------------|
a-----------------------------------------------------------------|
d-----------------------------------------------------------------|

e-----------------------------------------------------------------|
b-----------------------------------------------------------------|
g---------------------------------4-4-4-4-----4-4-4-4-----4-4-----|
d---------------------------------4-4-4-4-----4-4-4-4-----4-4-----|
a-3h5-5-5-5-5-6-6-6-3-3-3-5-2-2-2-2-2-2-2-----2-2-2-2-----2-2-----|
d-----------------------------------------------------------------|

Chorus: (2:19)

e-----------------------------------------------------------------|
b-0-------------------------------0-------------------------------|
g-5-------------------------------5-----------------------4-4-4-4-|
d---------------------------------------------------------x-x-x-x-|
a---6-0-5/6-0-6\5-0-0---0-0---0-0---6-0-5/6-0-6\5-0-0---0-2-2-2-2-|
d---6-0-5/6-0-6\5-0-0---0-0---0-0---6-0-5/6-0-6\5-0-0---0---------|

e-----------------------------------------------------------------|
b-0-------------------------------0-------------------------------|
g-5-------------------------------5-----------------------4-4-4-4-|
d---------------------------------------------------------x-x-x-x-|
a---6-0-5/6-0-6\5-0-0----0-0--------6-0-5/6-0-6\5-0-0---0-2-2-2-2-|
d---6-0-5/6-0-6\5-0-0----0-0--------6-0-5/6-0-6\5-0-0---0---------|

(2:30) x2

e-----------------------------------------------------------------|
b-----------------------------------------------------------------|
g-4-4-4-4-4-4-5-5-5-5-5-5-5-5-5-5/7-7-7-7-7-7-7-5-5-5-5-5-5-5-5-5-|
d-x-x-x-x-x-x-x-x-x-x-x-x-x-x-x-x-x-x-x-x-x-x-x-x-x-x-x-x-x-x-x-x-|
a-2-2-2-2-2-2-3-3-3-3-3-3-3-3-3-3/5-5-5-5-5-5-5-3-3-3-3-3-3-3-3-3-|
d-----------------------------------------------------------------|

(2:41) x3

e-----------------------------------------------------------------|
b-----------------------------------------------------------------|
g-4-4-4-4/7\4-4-4-4/5-5-5-5-5-5-5-5/7-7-7-7/8\7-7-7-5-5-5-5-5-5-5-|
d-x-x-x-x-x-x-x-x-x-x-x-x-x-x-x-x-x-x-x-x-x-x-x-x-x-x-x-x-x-x-x-x-|
a-2-2-2-2/5\2-2-2-2/3-3-3-3-3-3-3-3/5-5-5-5/6\5-5-5-3-3-3-3-3-3-3-|
d-----------------------------------------------------------------|

(2:58)
Chorus:

x3
e-----------------------------------------------------------------|
b-0-------------------------------0-------------------------------|
g-5-------------------------------5-----------------------4/5-5/7-|
d---------------------------------------------------------x-x-x-x-|
a---6-0-5/6-0-6\5-0-0---0-0---0-0---6-0-5/6-0-6\5-0-0---0-2/3-3/5-|
d---6-0-5/6-0-6\5-0-0---0-0---0-0---6-0-5/6-0-6\5-0-0---0---------|

then,

e-----------------------------------------------------------------|
b-0---------------------------------------------------------------|
g-5-----------------------4-4-4-4-7-------------------------------|
d-------------------------x-x-x-x-x-------------------------------|
a---6-0-5/6-0-6\5-0-0---0-2-2-2-2-5-------------------------------|
d---6-0-5/6-0-6\5-0-0---0-----------0---0---0--66-0---------------|

(3:19)                                   (3:27)
x3
e-------------------------------------   -------------------------|
b-------------------------------------   -------------------------|
g-------------------------------------   -------------------------|
d-------------------------------------   -------------------------|
a-------------------------------------   -------------------------|
d-6-0-0-0----0-0----0-0----0-0---0-0--   -6-0-0-0----0-0----------|

(3:30)
x8
e-------------------------------------|
b-------------------------------------|
g-------------------------------------|
d-------------------------------------|
a-------------------------------------|
d-6-0-0-0----0-0----0-0----0-0---0-0--|

(3:52)
x2
e-----------------------------------------------------------------|
b-----------------------------------------------------------------|
g-4-4-4-4/7\4-4-4-4/5-5-5-5-5-5-5/7-7-7-7-8\7-7-7-7\5-5-5-5-5-5-5-|
d-x-x-x-x-x-x-x-x-x-x-x-x-x-x-x-x-x-x-x-x-x-x-x-x-x-x-x-x-x-x-x-x-|
a-2-2-2-2/5\2-2-2-2/3-3-3-3-3-3-3/5-5-5-5-6\5-5-5-5\3-3-3-3-3-3-3-|
d-----------------------------------------------------------------|

(4:03)                                 (4:14)
x4
e----------------------------------    -------------------|
b----------------------------------    -----12----12------|
g-----------------7-7-7-7----------    -----10----10------|
d-----------------x-x-x-x----------    ------9-----9------|
a-6-0-0-0----0-0--5-5-5-5-6-6-6-6--    -9-----------------|
d-6-0-0-0----0-0----------6-6-6-6--    -9-----------------|

(4:16)
x4
e-------------------------------------------------------------|
b----12---------6---------------------------------------------|
g----10---------4---------------------------------------------|
d-----9---------3---------------------------------------------|
a-9--------3---------1---1-1-3-3--1----1-----------1----------|
d-9--------3---------1---1-1-3-3--1--3---3p1-3---3---3p1-3p1--|

(4:39)

e---------------------------|
b-----12--12-----1212---12--|
g-----10--10-----1010---10--|
d------9---9------9-9----9--|
a-9------------9-------9----|
d-9------------9-------9----|

(4:41)
x4
e-------------------------------------------------------------|
b-----12--12-----1212---12-----12--12-------12--12------------|
g-----10--10-----1010---10-----10--10-------10--10------------|
d------9---9------9-9----9------9---9--------9---9---10--10---|
a-9------------9-------9----9----------9-------------10--10---|
d-9------------9-------9----9----------9-------------10--10---|

(5:03)

e----------------------|
b----12---------12-----|
g----10-------10-------|
d-----9------9---------|
a-9---------9----------|
d-9--------9-----------|

(5:06)

e-----------------------------------------------------------------|
b-----------------------------------------6-6---------6-6---------|
g-----------------------------------------4-4---------4-4---------|
d-----------------------------------------------------------------|
a-3h5-5-5-5-5-6-6-6-3-3-3-5-2-2-2-2-2-2-2-----2-2-2-2-------------|
d-----------------------------------------------------------------|

Verse 3: (5:12)
x2
e-----------------------------------------------------------------|
b-----------------------------------------6-6---------6-6---------|
g-----------------------------------------4-4---------4-4---------|
d-----------------------------------------------------------------|
a-3h5-5-5-5-5-6-6-6-3-3-3-5-2-2-2-2-2-2-2-----2-2-2-2-----2-2-2-2-|
d-----------------------------------------------------------------|

(5:23)
x2
e-----------------------------------------------------------------|
b-----------------------------------------------------------------|
g-----------------------------------------------------------------|
d-----------------------------------------9-----------9-----------|
a-3h5-5-5-5-5-6-6-6-3-3-3-5-2-2-2-8-8-8-8---8-8-8-8-8---8-8-8-8-8-|
d-----------------------------------------------------------------|

then,

e-----------------------------------------------------------------|
b-----------------------------------------------------------------|
g-----------------------------------------------------------------|
d-----------------------------------------------------------------|
a-3h5-5-5-5-5-6-6-6-3-3-3-5-2-2-2---------------------------------|
d---------------------------------0-0-0-0-------------------------|

e-----------------------------------------------------------------|
b-----------------------------------------------------------0-----|
g-----------------------------------------------------------5-----|
d-----------------------------------------------------------------|
a-3h5-5-5-5-5-6-6-6-3-3-3-5-2-2-2---------------------------------|
d---------------------------------0-0-0-0-------------------------|

e-----------------------------------------------------------------|
b-----------------------------------------------------------------|
g-----------------------------------------------------------------|
d-----------------------------------------------------------------|
a-3h5-5-5-5-5-6-6-6-3-3-3-5-2-2-2-------------0----0----0---------|
d---------------------------------0-0-0-0-----0----0----0---------|

e-----------------------------------------------------------------|
b-----------------------------------------------------------------|
g-----------------------------------------------------------------|
d-----------------------------------------------------------------|
a-3h5-5-5-5-5-6-6-6-3-3-3-5-2-2-2-0-0-0-0----0-0---0----0-0---0---|
d---------------------------------0-0-0-0----0-0---0----0-0---0---|

(5:57)
Chorus:
x2
e-----------------------------------------------------------------|
b-0-------------------------------0-------------------------------|
g-5-------------------------------5-----------------------4-4-4-4-|
d---------------------------------------------------------x-x-x-x-|
a---6-0-5/6-0-6\5-0-0---0-0---0-0---6-0-5/6-0-6\5-0-0---0-2-2-2-2-|
d---6-0-5/6-0-6\5-0-0---0-0---0-0---6-0-5/6-0-6\5-0-0---0---------|

then,

e-------------------------------------------------------------|
b-0--------------------------0--------------------------------|
g-5--------------------------5-----------------------4-4-4-4--|
d----------------------------------------------------x-x-x-x--|
a---6-0-5/6-0-6\5-0-0---0-0----0-7-5/6-0-6\5-0-0---0-2-2-2-2--|
d---6-0-5/6-0-6\5-0-0---0-0----0-7-5/6-0-6\5-0-0---0----------|

e---------------------------|
b---------------------------|
g-5-------------------------|
d-x-------------------------|
a-3-------------------------|
d---0---0---0--66-0---------|

Outro: (6:17)
repeat till fade,   31 isn't fret 31, it's 3-1 faster

pm
e---------------------------------|
b---------------------------------|
g------------------------------4--|
d------------------------------x--|
a------------------------------2--|
d-3-2-1-3-2-1-3-0-31-1-1-3-1-0----|

e---------------------------------------|
b---------------------------------------|
g---------------------------------------|
d---------------------------------------|
a---------------------------------------|
d-3-2-1-3-2-1-3-0-31-0-0-31-0-0-31-0-0--|

17. Lethal Dosage

Interlude

Credits:

Dig -> ???
Internal Primates Forever -> ???
-1 -> Trevor Jones
Death Blooms -> Mr. X Korupted®
Cradle -> Trevor Jones
Nothing to Gein -> ???
Everything and Nothing -> Trevor Jones
Severed -> Thomas Hassler
Prod -> Trevor Jones
Pharmacopia -> Thomas Hassler
Under My Skin -> Trevor Jones
(K)now F(orever) -> Trevor Jones
Добавлено: 03.11.2013
Другие материалы по этой песне:
  • Аккорды и текст

Страница создана 01.04.2012
http://primanota.ru/mudvayne/ld-50-chords.htm
Привет, Гость.
Предлагаем пройти революционный курс по гитаре.
Подарок от PrimaNota.Ru, забирай!