PrimaNota.ru - самый крупный в мире бесплатный архив песенных текстов, аккордов, табулатур и нот


Mudvayne - Determined - текст песни, таба, бас-таба, видео

Регистрация Запомнить меня
Войти через:  Facebook Google Twitter Vk Yandex Mail.ru

Mudvayne - Determined - текст песни, таба, бас-таба, видео

Печатать
Просмотров: 402
Band: Mudvayne
Album: Lost and Found
Song: Determined
Tabbed By: Maggot King (02/08/07)

Drop D Tuning Down One Step
(low to high) C-G-D-F-A-D


~ = Vibrate String

/ = Slide Up

\ = Slide Down

PM = Palm Mute

|___| = Where To Palm Mute

NOW TO BEGIN THE TAB!!!! \,,/{-_ -}\,,/

 Intro (tremelo pick)

D |-----------------------|----------------------|
A |-----------------------|----------------------|
F |-----------------------|----------------------|
C |-----------------------|-2222333355558888-----|
G |-----------------------|-2222333355558888-(x4)|
C |-2222333355558888-(x4)-|-2222333355558888-----|

                      *Scream!*


 Chorus

D |------------------------------------|------------------------------|
A |------------------------------------|------------------------------|
F |------------------------------------|------------------------------|
C |-0-3-0-3-0-3-0-3-6-0--0/6-0/6-0-----|-0-3-0-3-0-3-0-3-6-0--0/6-0/6~|
G |-0-3-0-3-0-3-0-3-6-0--0/6-0/6-0-(x3)|-0-3-0-3-0-3-0-3-6-0--0/6-0/6~|
C |-0-3-0-3-0-3-0-3-6-0--0/6-0/6-0-----|-0-3-0-3-0-3-0-3-6-0--0/6-0/6~|

                 "GO! SO F*CKING DETERMINED YEAH! YEAH!"

 Verse

D |---------------------------------------------------|
A |-----------------6-6-6-6-------------------6-6-6-6-|
F |-----------------4-4-4-4-------------------4-4-4-4-|
C |-----------------3-3-3-3-------------------3-3-3-3-|
G |-2222-0-2-0-2320-2-2-2-2-2222-0-2/5\2-2320-2-2-2-2-|
C |-2222-0-2-0-2320---------2222-0-2/5\2-2320---------|

PM |_______________|       |______|     |____|

 Verse (continued)

D |---------------------------------------------------------|
A |-----------------6-6-6-6-------------------6-6-----------|
F |-----------------4-4-4-4-------------------4-4-4444/7777-|
C |-----------------3-3-3-3-------------------3-3-3333/6666-|
G |-2222-0-2-0-2320-2-2-2-2-2222-0-2/5\2-2320-2-2-2222/5555-|
C |-2222-0-2-0-2320---------2222-0-2/5\2-2320---------------|

PM |_______________|       |______|     |____|


 (Play Chorus 1x)

 (Play Verse 1x)

 (Play Chorus 1x)


 Bridge (Half-time feel)

D |-------------------------------|-------------------------------|
A |-------------------------------|-------------------------------|
F |-------------------------------|-------------------------------|
C |-------------------------------|-------------------------------|
G |-------------------------------|-------------------------------|
C |-2222-002222-002222-0088775577-|-2222-002222-002222-0088778833-|

PM |___________________________________________|


D |-------------------------------|--------------------------------|
A |-------------------------------|--------------------------------|
F |-------------------------------|--------------------------------|
C |-2222-002222-002222-0088775577-|-2222-002222-002222-00887788\33-|
G |-2222-002222-002222-0088775577-|-2222-002222-002222-00887788\33-|
C |-2222-002222-002222-0088775577-|-2222-002222-002222-00887788\33-|

D |--------------------------------|-----------------------------------|
A |--------------------------------|-----------------------------------|
F |--------------------------------|-----------------------------------|
C |-2222-------------------------0-|-2222------------------------------|
G |-2222-------------------------0-|-2222------------------------------|
C |-22225202-5202-5202025202-52020-|-22225202-5202-5202025202-87777777-|

 (Play Whole Intro Again 1x)


 (Play Chorus 2x)
 [One second time, let the loose chord ring.]


 Well, that's the tab. It should be 100% correct. So please, e-mail me at 
for your feedback =D Keep on supporting metal!!!
Добавлено: 14.11.2013
Другие материалы по этой песне:

Страница создана 11.04.2012
http://primanota.ru/mudvayne/determined-chords.htm
Привет, Гость.
Предлагаем пройти революционный курс по гитаре.
Подарок от PrimaNota.Ru, забирай!