PrimaNota.ru - самый крупный в мире бесплатный архив песенных текстов, аккордов, табулатур и нот


Моцарт Вольфганг Амадей - K525 Eine Kleine Nachtmusik - Iv Rondo - таба, видео

Регистрация Запомнить меня
Войти через:  Facebook Google Twitter Vk Yandex Mail.ru

Моцарт Вольфганг Амадей - K525 Eine Kleine Nachtmusik - Iv Rondo - таба, видео

Печатать
Просмотров: 158
Title: Rondo from Mozart's Eine Klein Nachtmusik for 4 Gtrs.
Composer: Mozart
Arranger: Alex Mondragon


          4/4                                              |-3-|
           H       E SSSSSS  Q   Q   Q   Q     Q   Q   Q   S S S S S
        E|-------------3-7-|-10--10--10--10--|-2---2---3---3-3-5-5-3|
        B|-----------3-----|-----------------|-----------------8---7|
        G|-----------------|-----------------|----------------------|
 Guitar D|-----------------|-----------------|----------------------|
        A|-----------------|-----------------|----------------------|
        E|-----------------|-----------------|----------------------|
        |
        |
        E|-----------------|-----------------|----------------------|
        B|-----------------|-----------------|----------------------|
        G|-----------------|-----------------|----------------------|
 Guitar D|-----------------|-----------------|----------------------|
        A|-----------------|-----------------|----------------------|
        E|-----------------|-----------------|----------------------|
         |
         |                   E E E E E E E E   E E E E E E E     E
        E|-----------------|-----------------|----------------------|
        B|-----------------|-------------0---|-1---1---0---0--------|
        G|-----------------|---------0-----0-|---2---2---0-------0--|
 Guitar D|-----------------|-----0-----0-----|----------------------|
        A|-----------------|-2-----2---------|----------------------|
        E|-----------------|---3-------------|----------------------|
         |
         |                   H       H         Q   Q   Q   Q
        E|-----------------|-----------------|----------------------|
        B|-----------------|-----------------|----------------------|
        G|-----------------|-----------------|----------------------|
 Guitar D|-----------------|-----------------|----------------------|
        A|-----------------|-----------------|----------------------|
        E|-----------------|-?---------------|-?-------?------------|



   SSE Q   H   Q     Q   Q   E SSSSSS  Q   Q   Q   Q
E|-3---8---7---7---|-5-----------3-7-|-10--10--10--10--|
B|-----------------|-----------3-----|-----------------|
G|-----------------|-----------------|-----------------|
D|-----------------|-----------------|-----------------|
A|-----------------|-----------------|-----------------|
E|-----------------|-----------------|-----------------|
 |
 |
E|-----------------|-----------------|-----------------|
B|-----------------|-----------------|-----------------|
G|-----------------|-----------------|-----------------|
D|-----------------|-----------------|-----------------|
A|-----------------|-----------------|-----------------|
E|-----------------|-----------------|-----------------|
 |
 | E E E E E E E E   E SSSSSSSSSSSSSS  E E E E E E E E
E|-----------------|-----------------|-----------------|
B|-----------------|---0-------------|-------------0---|
G|-2---2---0---0---|---0-2-0---------|---------0-----0-|
D|---0---0---0---0-|-4---4-2-0-2-0---|-----0-----0-----|
A|-----------------|---------9-4-2-0-|-2-----2---------|
E|-----------------|---------------9-|---3-------------|
 |
 | Q   Q   Q   Q     Q   Q   H         H       H
E|-----------------|-----------------|-----------------|
B|-----------------|-----------------|-----------------|
G|-----------------|-----------------|-----------------|
D|-----------------|-----------------|-----------------|
A|-----------------|-----------------|-----------------|
E|-?-------?-------|-?---------------|-?---------------|


       |--3--|         |--3--|
   Q   S S S S S S SSE S S S S S S  SSE Q   Q   E E   Q   Q   E SSSSSS
E|-2---2-2-3-2-3-0-2---3-3-5-3-5-2|-3---5-------0-2-|-3-----------3-7-|
B|--------------------------------|---------3-------|-----------3-----|
G|--------------------------------|-----------------|-----------------|
D|--------------------------------|-----------------|-----------------|
A|--------------------------------|-----------------|-----------------|
E|--------------------------------|-----------------|-----------------|
 |
 |                                  H       Q   E E
E|--------------------------------|-----------------|-----------------|
B|--------------------------------|-------------1---|-----------------|
G|--------------------------------|-----------------|-----------------|
D|--------------------------------|-----------------|-----------------|
A|--------------------------------|-----------------|-----------------|
E|--------------------------------|-----------------|-----------------|
 |
 | E E E       E   E E E       E    E E E E E E E E   E SSSSSSSSSSSSSS
E|--------------------------------|-----------------|-----------------|
B|-1---1-----------0---0----------|-----------------|---0-------------|
G|---2---------2-----0---------0--|---0---0-2---0-2-|-0---2-0---------|
D|--------------------------------|-----------4-----|-----4-2-0-2-0---|
A|--------------------------------|-----------------|---------9-4-2-0-|
E|--------------------------------|-----------------|---------------9-|
 |
 | Q   Q           Q   Q            Q   Q   Q   Q     Q   Q   Q   Q
E|--------------------------------|-----------------|-----------------|
B|--------------------------------|-----------------|-----------------|
G|--------------------------------|-----------------|-----------------|
D|--------------------------------|-----------------|-----------------|
A|--------------------------------|-----------------|-----------------|
E|-?---------------?--------------|-?-------?-------|-?---?---?---?---|


                                 |-3-|
   Q   Q   Q   Q     Q   Q   Q   S S S S S  SSE Q   H   Q     Q   Q   E SSSSSS
E|-10--10--10--10--|-2---2---3---3-3-5-5-3|-3---8---7---7---|-5-----------3-7-|
B|-----------------|-----------------8---7|-----------------|-----------3-----|
G|-----------------|----------------------|-----------------|-----------------|
D|-----------------|----------------------|-----------------|-----------------|
A|-----------------|----------------------|-----------------|-----------------|
E|-----------------|----------------------|-----------------|-----------------|
 |
 |
E|-----------------|----------------------|-----------------|-----------------|
B|-----------------|----------------------|-----------------|-----------------|
G|-----------------|----------------------|-----------------|-----------------|
D|-----------------|----------------------|-----------------|-----------------|
A|-----------------|----------------------|-----------------|-----------------|
E|-----------------|----------------------|-----------------|-----------------|
 |
 | E E E E E E E E   E E E E E E E     E    E E E E E E E E   E SSSSSSSSSSSSSS
E|-----------------|----------------------|-----------------|-----------------|
B|-------------0---|-1---1---0---0--------|-----------------|---0-------------|
G|---------0-----0-|---2---2---0-------0--|-2---2---0---0---|---0-2-0---------|
D|-----0-----0-----|----------------------|---0---0---0---0-|-4---4-2-0-2-0---|
A|-2-----2---------|----------------------|-----------------|---------9-4-2-0-|
E|---3-------------|----------------------|-----------------|---------------9-|
 |
 | H       H         Q   Q   Q   Q          Q   Q   Q   Q     Q   Q   H
E|-----------------|----------------------|-----------------|-----------------|
B|-----------------|----------------------|-----------------|-----------------|
G|-----------------|----------------------|-----------------|-----------------|
D|-----------------|----------------------|-----------------|-----------------|
A|-----------------|----------------------|-----------------|-----------------|
E|-?---------------|-?-------?------------|-?-------?-------|-?---------------|


                         |--3--|         |--3--|
   Q   Q   Q   Q     Q   S S S S S S SSE S S S S S S  SSE Q   Q   E E
E|-10--10--10--10--|-2---2-2-3-2-3-0-2---3-3-5-3-5-2|-3---5-------0-2-|
B|-----------------|--------------------------------|---------3-------|
G|-----------------|--------------------------------|-----------------|
D|-----------------|--------------------------------|-----------------|
A|-----------------|--------------------------------|-----------------|
E|-----------------|--------------------------------|-----------------|
 |
 |                                                    H       Q   E E
E|-----------------|--------------------------------|-----------------|
B|-----------------|--------------------------------|-------------1---|
G|-----------------|--------------------------------|-----------------|
D|-----------------|--------------------------------|-----------------|
A|-----------------|--------------------------------|-----------------|
E|-----------------|--------------------------------|-----------------|
 |
 | E E E E E E E E   E E E       E   E E E       E    E E E E E E E E
E|-----------------|--------------------------------|-----------------|
B|-------------0---|-1---1-----------0---0----------|-----------------|
G|---------0-----0-|---2---------2-----0---------0--|---0---0-2---0-2-|
D|-----0-----0-----|--------------------------------|-----------4-----|
A|-2-----2---------|--------------------------------|-----------------|
E|---3-------------|--------------------------------|-----------------|
 |
 | H       H         Q   Q           Q   Q            Q   Q   Q   Q
E|-----------------|--------------------------------|-----------------|
B|-----------------|--------------------------------|-----------------|
G|-----------------|--------------------------------|-----------------|
D|-----------------|--------------------------------|-----------------|
A|-----------------|--------------------------------|-----------------|
E|-?---------------|-?---------------?--------------|-?-------?-------|



   H       E E E E   H       E E E E   E  Q   E  E  Q   E
E|-3+------3-5-2---|-7+------7-8-5-2-|-10-10--10+10-10--10+|
B|---------------3-|-----------------|---------------------|
G|-----------------|-----------------|---------------------|
D|-----------------|-----------------|-12-12--12+12-12--12+|
A|-----------------|-----------------|---------------------|
E|-----------------|-----------------|---------------------|
 |
 | Q   Q   H         H       E E E E   H         E  E E E
E|-----------------|-----------------|---------------------|
B|-0---------------|-----------------|-0+--------0--1------|
G|-----------------|-0+------0-2-----|----------------2----|
D|-----------------|-------------4-0-|------------------4--|
A|-----------------|-----------------|---------------------|
E|-----------------|-----------------|---------------------|
 |
 | E E E E E E E E   E E E E E E E E   Q    Q    E  E E E
E|-----------------|-----------------|---------------------|
B|-----------------|-----------------|---------------------|
G|-0---------------|-----------------|------0+---0---------|
D|---0---0---0---0-|---0---0---0---0-|---------------------|
A|-----2---3---3---|-2---2---3---3---|-2------------0------|
E|-----3---3---3---|-3---3---3---3---|-3----3+---3----2-?--|
 |
 | E E E E Q   Q     E E E E Q   Q     H         E  E E E
E|-----------------|-----------------|---------------------|
B|-----------------|-----------------|---------------------|
G|-----------------|-----------------|---------------------|
D|-----------------|-----------------|---------------------|
A|-----------------|-----------------|---------------------|
E|-?-?-?-?-?---?---|-?-?-?-?-?---?---|-?---------?--?-?-?--|



   E  Q   E  E  Q    E    E  E SSSSE E SSSS  E E SSSSE E E E   Q   Q   Q   Q
E|-10-10--10+10-10---10+|-10-7-7-7-7-3-3-3-|-3---------------|-----2---3---7---|
B|----------------------|------------------|---3-3-3-3-0-0---|-3---3---3-------|
G|----------------------|------------------|---------------0-|-------------7---|
D|-12-12--12+12-12---12+|-12---------------|-----------------|-----------------|
A|----------------------|------------------|-----------------|-----------------|
E|----------------------|------------------|-----------------|-----------------|
 |
 | H         E  E  E E    Q    SSSSE E SSSS  E E SSSSE E Q     Q   Q   Q   Q
E|----------------------|------------------|-----------------|-----------------|
B|----------------------|-0----0-0-0-------|-----------------|---------0---0---|
G|-0+--------0--2-------|------------0-0-0-|-0---------------|-----2---0---0---|
D|-----------------4-0--|------------------|---0-0-0-0-------|-----4-----------|
A|----------------------|------------------|-----------------|-----------------|
E|----------------------|------------------|-----------------|-----------------|
 |
 | H         E  E  E E    Q    SSSSE E SSSS  E E SSSSE E E E   E E E E E E E E
E|----------------------|------------------|-----------------|-----------------|
B|----------------------|------------------|-----------------|-----------------|
G|----------------------|------------------|-----------------|-----------------|
D|----------------------|------------------|-----------------|---0---0---0-----|
A|-2+--------2--3--0----|------2-2-2-------|-----------------|-----3---2---2---|
E|-------------------2--|-3----------3-3-3-|-3-?-?-?-?-?-?-?-|-?-------------3-|
 |
 | H         E  E  E E    Q    SSSSE E SSSS  E E SSSSE E E E   E E E E E E E E
E|----------------------|------------------|-----------------|-----------------|
B|----------------------|------------------|-----------------|-----------------|
G|----------------------|------------------|-----------------|-----------------|
D|----------------------|------------------|-----------------|-----------------|
A|----------------------|------------------|-----------------|-----------------|
E|-?---------?--?--?-?--|-?----?-?-?-?-?-?-|-?-?-?-?-?-?-?-?-|-?-?-?-?-?-?-?-?-|



   Q   Q   H         H       E E E E   E E E E E E Q     E E E E E E E E
E|-10--------------|-5---------------|-0---2---3-------|-2-3-4-5-6-7-3-0-|
B|-7---------------|---------2---3---|-----------------|-----------------|
G|-7---------------|-----------------|-----------------|-----------------|
D|-----------------|-----------------|-----------------|-----------------|
A|-----------------|-----------------|-----------------|-----------------|
E|-----------------|-----------------|-----------------|-----------------|
 |
 | Q   Q   Q   Q     Q   Q   E E E E   E E E E E E E E   E E E E E E E E
E|-----------------|-----------------|-------------0---|---0-1-2---------|
B|-----------------|-----------------|-0---2---3-------|---------2-3-0---|
G|-2---------------|---------0---2---|-----------------|---------------0-|
D|-4---0---0-------|-----4-----------|-----------------|-----------------|
A|-5---------------|-----------------|-----------------|-----------------|
E|-----------------|-----------------|-----------------|-----------------|
 |
 | Q   Q   Q   Q     Q   Q   E E E E   E E E E E E E E   H       Q   Q
E|-----------------|-----------------|-----------------|-----------------|
B|-----------------|-----------------|---------0---2---|-----------------|
G|-----------------|-----------------|-0---2-----------|-----------------|
D|-----------------|-----0---2---4---|-----------------|-----------------|
A|-----------------|-----------------|-----------------|-----------------|
E|-?---?---?-------|-----------------|-----------------|---------3-------|
 |
 | Q   Q   Q   Q
E|-----------------|-----------------|-----------------|-----------------|
B|-----------------|-----------------|-----------------|-----------------|
G|-----------------|-----------------|-----------------|-----------------|
D|-----------------|-----------------|-----------------|-----------------|
A|-----------------|-----------------|-----------------|-----------------|
E|-?---?---?-------|-----------------|-----------------|-----------------|



   H       Q   Q     H       E E E E   E E E E E E Q     Q   H       Q
E|-----------------|-5---------------|-0---2---3-------|-2---10------4---|
B|-3-------2-------|---------2---3---|-----------------|-----------------|
G|-----------------|-----------------|-----------------|-----11----------|
D|-----------------|-----------------|-----------------|-----------------|
A|-----------------|-----------------|-----------------|-----------------|
E|-----------------|-----------------|-----------------|-----------------|
 |
 | H       Q   Q     H       E E E E   E E E E E E Q     Q   H       Q
E|-----------------|-----------------|-----------------|-----------------|
B|-----------------|-----------------|-----------------|-----3-------0---|
G|-----------------|-2---------------|---------0-------|-----------------|
D|-4-------2-------|-------------0---|-2---4-----------|-4---4-----------|
A|-----------------|---------4-------|-----------------|-----------------|
E|-----------------|-----------------|-----------------|-----------------|
 |
 | E E E E E E E E   E E Q   E E E E   E E E E E E E E   H       Q   Q
E|-----------------|-----------------|-----------------|-----------------|
B|-----------------|-----------------|-----------------|-----------------|
G|-----------------|-----------------|-----------------|-----------------|
D|-----------------|-----------------|---------0---2---|-------------0---|
A|-0---0---0-2-----|-------------0---|-2---4-----------|-0-------2-------|
E|---4---4-----3-0-|-?---2---3-------|-----------------|-----------------|
 |
 |                   Q   Q   E E E E   E E E E E E E E   Q   Q   Q   Q
E|-----------------|-----------------|-----------------|-----------------|
B|-----------------|-----------------|-----------------|-----------------|
G|-----------------|-----------------|-----------------|-----------------|
D|-----------------|-----------------|-----------------|-----------------|
A|-----------------|-----------------|-----------------|-----------------|
E|-----------------|-----?---?---?---|-?---?---?---?---|-?---?---?---?---|
                                                                 ?


   H       Q   Q     E E SSSSQ   Q     E E SSSSQ   Q     E E SSSSE E E E
E|-7-------5-------|-7-5-3-2-0---0---|-3-2-0-----------|-7-5-3-2-0-0-0-0-|
B|-----------------|-----------------|-------3-2-------|-----------------|
G|-----------------|-----------------|-----------------|-----------------|
D|-----------------|-----------------|-----------------|-----------------|
A|-----------------|-----------------|-----------------|-----------------|
E|-----------------|-----------------|-----------------|-----------------|
 |
 | H       Q   Q                       E E SSSSQ   Q     E E SSSSQ   Q
E|-----------------|-----------------|-----------------|-----------------|
B|-3-------2-------|-----------------|-0---------------|-----------------|
G|-----------------|-----------------|---2-0-----------|-0---------------|
D|-----------------|-----------------|-------4-2---2---|---4-2-0---------|
A|-----------------|-----------------|-----------------|---------4-------|
E|-----------------|-----------------|-----------------|-----------------|
 |
 | H       Q   Q                                         E E SSSSQ   Q
E|-----------------|-----------------|-----------------|-----------------|
B|-----------------|-----------------|-----------------|-----------------|
G|-1-------2-------|-----------------|-----------------|-----------------|
D|-----------------|-----------------|-----------------|-----------------|
A|-----------------|-----------------|-----------------|-----------------|
E|-----------------|-----------------|-----------------|-?-?-0-1-3-------|
 |
 | E E E E E E E E   E E E E E E E E   E E E E E E E E   E E E E E E E E
E|-----------------|-----------------|-----------------|-----------------|
B|-----------------|-----------------|-----------------|-----------------|
G|-----------------|-----------------|-----------------|-----------------|
D|-----------------|-----------------|-----------------|-----------------|
A|-----------------|-----------------|-----------------|-----------------|
E|-?-?-?-?-?-?-?-?-|-?-?-?-?-?-?-?-?-|-?-?-?-?-?-?-?-?-|-?-?-?-?-?-?-?-?-|



   E E SSSSE E E E   E E SSSSE E E E   E E SSSSE E E E   E E E E E E E E
E|-3-2-0-----0---0-|-3-1-0-----0---0-|-3-1-0-----0---0-|-3-0-3-0-3-0-3-0-|
B|-------3-2---2---|-------3-2---2---|-------3-2---2---|-----------------|
G|-----------------|-----------------|-----------------|-----------------|
D|-----------------|-----------------|-----------------|-----------------|
A|-----------------|-----------------|-----------------|-----------------|
E|-----------------|-----------------|-----------------|-----------------|
 |
 | E E SSSSQ   Q     E E SSSSQ   Q     E E SSSSQ   Q
E|-----------------|-----------------|-----------------|-----------------|
B|-0---------------|-----------------|-----------------|-----------------|
G|---2-0-----------|---------0-------|---------0-------|-----------------|
D|-------4-2-------|---0-2-3---------|---0-2-3---------|-----------------|
A|-----------------|-4---------------|-4---------------|-----------------|
E|-----------------|-----------------|-----------------|-----------------|
 |
 | E E SSSSQ   Q     Q   SSSSQ   Q     Q   SSSSQ   Q     E E E E E E E E
E|-----------------|-----------------|-----------------|-----------------|
B|-----------------|-----------------|-----------------|---2---2---2---2-|
G|-----------------|-----------------|-----------------|-2---3---2---3---|
D|-----------------|-------0-2-------|-------0-2-------|-----------------|
A|-----------------|-----4-----------|-----4-----------|-----------------|
E|-?-?-0-1-3-------|-----------------|-----------------|-----------------|
 |
 | E E E E Q   Q     H       Q   Q     H       Q   Q
E|-----------------|-----------------|-----------------|-----------------|
B|-----------------|-----------------|-----------------|-----------------|
G|-----------------|-----------------|-----------------|-----------------|
D|-----------------|-----------------|-----------------|-----------------|
A|-----------------|-----------------|-----------------|-----------------|
E|-?-?-?-?-?-------|-?-------?-------|-?-------?-------|-----------------|


                                                   |-3-|
   Q   Q   E SSSSSS  Q   Q   Q   Q     Q   Q   Q   S S S SS  SSE Q   H   Q
E|-3-------------2-|-5---5---5---5---|-----------------0-0-|-3---3---2---2---|
B|-------------3---|-----------------|-2---2---3---3-3-3--3|-3---------------|
G|-----------2-----|-----------------|--------------------6|-----------------|
D|-----------------|-----------------|---------------------|-----------------|
A|-----------------|-----------------|---------------------|-----------------|
E|-----------------|-----------------|---------------------|-----------------|
 |
 | Q   Q   H
E|-0---------------|-----------------|---------------------|-----------------|
B|-----------------|-----------------|---------------------|-----------------|
G|-----------------|-----------------|---------------------|-----------------|
D|-----------------|-----------------|---------------------|-----------------|
A|-----------------|-----------------|---------------------|-----------------|
E|-----------------|-----------------|---------------------|-----------------|
 |
 | Q   Q   H         E E E E E E E E   E E E E E E E     E   E E E E E E E E
E|-----------------|-----------------|---------------------|-----------------|
B|-----------------|-----------------|---------------------|-----------------|
G|-2---------------|-----------------|-0---0---------------|-2---2---2---2---|
D|-----------------|-4-0-----0---4-0-|---2---2-4-0-4-----0-|---2---2---0---0-|
A|-----------------|-------0---0-----|---------------------|-----------------|
E|-----------------|-----2-----------|---------------------|-----------------|
 |
 |                   H       H         Q   Q   Q   Q         Q   Q   Q   Q
E|-----------------|-----------------|---------------------|-----------------|
B|-----------------|-----------------|---------------------|-----------------|
G|-----------------|-----------------|---------------------|-----------------|
D|-----------------|-----------------|---------------------|-----------------|
A|-----------------|-----------------|---------------------|-----------------|
E|-----------------|-?---------------|-?-------?-----------|-?-------?-------|


                                           |--3--|         |-3-|
   Q   Q   E SSSSSS  Q   Q   Q   Q     Q   S S S S S S SSE S SSSSS
E|-0-------------2-|-5---5---5---5---|------------------------0-0-|
B|-------------3---|-----------------|-2---2-2-3-2-3-0-2---3-3-3-2|
G|-----------2-----|-----------------|----------------------------|
D|-----------------|-----------------|----------------------------|
A|-----------------|-----------------|----------------------------|
E|-----------------|-----------------|----------------------------|
 |
 | E SSSSSSSSSSSSSS  Q   Q   H
E|-----------------|-----------------|----------------------------|
B|---3-2-0---------|-----------------|----------------------------|
G|---------2-0-----|-----------------|----------------------------|
D|-------------4-2-|-4---------------|----------------------------|
A|-----------------|-----------------|----------------------------|
E|-----------------|-----------------|----------------------------|
 |
 | SSSSSSSSSSSSSSSS  E E E E E E E E   E E E       E   E E E    E
E|-----------------|-----------------|----------------------------|
B|-----------------|-----------------|----------------------------|
G|-----------------|-----------------|-0---0----------------------|
D|-------------0---|-0-------0---4-0-|---2---------2---4-0-4----0-|
A|-4-2-0---------4-|---0---0---0-----|----------------------------|
E|-------3-2-0-----|-----2-----------|----------------------------|
 |
 | Q   Q   H         H       H         Q   Q           Q   Q
E|-----------------|-----------------|----------------------------|
B|-----------------|-----------------|----------------------------|
G|-----------------|-----------------|----------------------------|
D|-----------------|-----------------|----------------------------|
A|-----------------|-----------------|----------------------------|
E|-?---------------|-?---------------|-?---------------?----------|


       |--3--|         |--3--|
   SSE S S S S S S SSE S S S S S S  SSE Q   E SSSSES  Q   Q   Q   Q
E|-0---0-0-2-0-2-0-0---2-2-3-2-3-0|-2-------3-----3-|-7---7---7---7---|
B|-3-------------3----------------|-----------0-3---|-----------------|
G|--------------------------------|-----------------|-----------------|
D|--------------------------------|-----------------|-----------------|
A|--------------------------------|-----------------|-----------------|
E|--------------------------------|-----------------|-----------------|
 |
 |
E|--------------------------------|-----------------|-----------------|
B|--------------------------------|-----------------|-----------------|
G|--------------------------------|-----------------|-----------------|
D|--------------------------------|-----------------|-----------------|
A|--------------------------------|-----------------|-----------------|
E|--------------------------------|-----------------|-----------------|
 |
 | E E E       E   E E E       E    E E E E Q   Q     E E E E E E E E
E|--------------------------------|-----------------|-----------------|
B|-0---0-----------1---1----------|-----------------|-----------------|
G|--------------------------------|---------0-------|-0-------0-------|
D|---0---------0-----0---------0--|-4-0-4-0-0-------|---2-4-1---2-4-1-|
A|--------------------------------|-----------------|-----------------|
E|--------------------------------|-----------------|-----------------|
 |
 | Q   Q           Q   Q            H       Q   Q     H       H
E|--------------------------------|-----------------|-----------------|
B|--------------------------------|-----------------|-----------------|
G|--------------------------------|-----------------|-----------------|
D|--------------------------------|-----------------|-----------------|
A|--------------------------------|-----------------|-----------------|
E|-?---------------?--------------|-?-------?-------|-?---------------|


       |--3--|         |-3-|
   Q   S S S S S S SSE S SSSSS  SSE Q   Q   Q     H        E E E E
E|------------------------0-0-|-3---3---0---0---|-5+-------5-7-3-5-|
B|-2---2-2-3-2-3-0-2---3-3-3-2|-3---------------|------------------|
G|----------------------------|-----------------|------------------|
D|----------------------------|-----------------|------------------|
A|----------------------------|-----------------|------------------|
E|----------------------------|-----------------|------------------|
 |
 |                                                S SE E E H
E|----------------------------|-----------------|------------------|
B|----------------------------|-----------------|--------3-2-------|
G|----------------------------|-----------------|------2-----------|
D|----------------------------|-----------------|-0--4-------------|
A|----------------------------|-----------------|------------------|
E|----------------------------|-----------------|------------------|
 |
 | E E E       E   E E E    E   E E E E E E E E   H        E E E E
E|----------------------------|-----------------|------------------|
B|----------------------------|-----------------|------------------|
G|-0---0----------------------|-----------------|------------------|
D|---2---------2---4-0-4----0-|-2---2-----------|--------------2---|
A|----------------------------|---2---2-4-0-4-0-|-0+-------0-4---0-|
E|----------------------------|-----------------|------------------|
 |
 | Q   Q           Q   Q        Q   Q   Q   Q     H        H
E|----------------------------|-----------------|------------------|
B|----------------------------|-----------------|------------------|
G|----------------------------|-----------------|------------------|
D|----------------------------|-----------------|------------------|
A|----------------------------|-----------------|------------------|
E|-?---------------?----------|-?-------?-------|-?--------?-------|



   H       E E E E   H       E E E E   E E SSS SE E SSSS  E E SSSSE E SSSS
E|-2+------2-3-0-2-|-----------0-----|-5-7-9-10-9-7-5-3-|-2-3-5-7-5-3-2-0-|
B|-----------------|-3+------3---2---|------------------|-----------------|
G|-----------------|---------------2-|------------------|-----------------|
D|-----------------|-----------------|------------------|-----------------|
A|-----------------|-----------------|------------------|-----------------|
E|-----------------|-----------------|------------------|-----------------|
 |
 | E E E E H         E E E E H         E E SSS SE E SSSS  E E SSSSE E SSSS
E|-----------------|-----------------|----------0-------|-----------------|
B|-3-------0-------|-----------------|---0-2-3----3-2-0-|-------0---------|
G|-------2---------|-2-------0-------|-2----------------|---0-2---2-0-2-0-|
D|---0-4-----------|-----0-4---------|------------------|-4---------------|
A|-----------------|---0-------------|------------------|-----------------|
E|-----------------|-----------------|------------------|-----------------|
 |
 | H       E E E E   H       E E E E   E E SSS SE E SSSS  E E SSSSE E SSSS
E|-----------------|-----------------|------------------|-----------------|
B|-----------------|-----------------|------------------|-----------------|
G|-----------------|-----------------|------------------|-------0---------|
D|-----------------|-----------------|------------------|-0-2-4---4-2-4-2-|
A|-0+------0-2---0-|-----------------|---0-0-0--0-4-4-4-|-----------------|
E|-------------3---|-2+------2-3-0-?-|-?----------------|-----------------|
 |
 | H       H         H       H         Q   E E  Q   E E   Q   E E Q   E E
E|-----------------|-----------------|------------------|-----------------|
B|-----------------|-----------------|------------------|-----------------|
G|-----------------|-----------------|------------------|-----------------|
D|-----------------|-----------------|------------------|-----------------|
A|-----------------|-----------------|------------------|-----------------|
E|-?-------?-------|-?-------?-------|-?---?-?--?---?-?-|-?---?-?-?---?-?-|



   E E SSSSE E SSSS  Q   Q   E SSSSSS  Q   Q   Q   Q     Q   Q   E SSSSSS
E|-0---------2-0---|---------------2-|-5---5---5---5---|---------------3-|
B|---3-3-3-3-----2-|-3-----------3---|-----------------|-0---------0-3---|
G|-----------------|-----------2-----|-----------------|-----------------|
D|-----------------|-----------------|-----------------|-----------------|
A|-----------------|-----------------|-----------------|-----------------|
E|-----------------|-----------------|-----------------|-----------------|
 |
 | E E SSSSE E SSE
E|-----------------|-----------------|-----------------|-----------------|
B|-----------------|-----------------|-----------------|-----------------|
G|-0---------2-0---|-----------------|-----------------|-----------------|
D|---4-4-4-4-------|-----------------|-----------------|-----------------|
A|-----------------|-----------------|-----------------|-----------------|
E|-----------------|-----------------|-----------------|-----------------|
 |
 | E E SSSSE E E E   E E E E E E E E   E E E E E E E E   E E E E E E E E
E|-----------------|-----------------|-----------------|-----------------|
B|-----------------|-----------------|-----------------|-----------------|
G|-----------------|-----------------|-----------------|-----------------|
D|-2-0-0-0-0---2---|-0---------------|-----0-----------|-----------------|
A|---------------4-|-----0---0---0---|-0-------4---3---|-2---2---2---2---|
E|-----------------|---2---2---2---2-|---2---2---2---2-|---3---3---3---3-|
 |
 | Q   E E E E E E   Q   E E E E E E   E E E E H         Q   E E E E E E
E|-----------------|-----------------|-----------------|-----------------|
B|-----------------|-----------------|-----------------|-----------------|
G|-----------------|-----------------|-----------------|-----------------|
D|-----------------|-----------------|-----------------|-----------------|
A|-----------------|-----------------|-----------------|-----------------|
E|-?---?-?-?-?-?-?-|-?---?---?---?---|-?---?-----------|-----?---?---?---|



   Q   Q   Q   Q     Q   Q   E SSSSSS  Q   Q   Q   Q     Q   Q   E SSSSSS
E|-7---7---7---7---|-------------2-5-|-8---8---8---8---|-----------------|
B|-----------------|-1---------1-----|-----------------|-3---------------|
G|-----------------|-----------------|-----------------|-5-------------2-|
D|-----------------|-----------------|-----------------|-----------0-4---|
A|-----------------|-----------------|-----------------|-----------------|
E|-----------------|-----------------|-----------------|-----------------|
 |
 |
E|-----------------|-----------------|-----------------|-----------------|
B|-----------------|-----------------|-----------------|-----------------|
G|-----------------|-----------------|-----------------|-----------------|
D|-----------------|-----------------|-----------------|-----------------|
A|-----------------|-----------------|-----------------|-----------------|
E|-----------------|-----------------|-----------------|-----------------|
 |
 | E E E E E E E E   E E E E E E E E   E E E E E E E E   Q   Q   E SSSSSS
E|-----------------|-----------------|-----------------|-----------------|
B|-----0-----------|-----------------|-------------0---|-----------------|
G|---------2---0---|-----------------|-----0---2-----0-|-2---------------|
D|-------0---------|-4---4---4---4---|-4-0---2---4-----|-4---------------|
A|-2---------3---2-|---0---0---0---0-|-----------------|---------------0-|
E|---3-------------|-----------------|-----------------|-----------?-2---|
 |
 | E E E E H         Q   E E E E E E   E E E E H         H       E SSSSSS
E|-----------------|-----------------|-----------------|-----------------|
B|-----------------|-----------------|-----------------|-----------------|
G|-----------------|-----------------|-----------------|-----------------|
D|-----------------|-----------------|-----------------|-----------------|
A|-----------------|-----------------|-----------------|-----------------|
E|-?---?-----------|-----?---?---?---|-?---?-----------|-----------?-?-?-|



   Q   Q   Q   Q     Q   Q   E SSS SS S  Q   Q   Q   Q
E|-----------------|-----------6-11-15-|-18--18--18--18--|
B|-1---1---1---1---|-------------------|-----------------|
G|-----------------|-------------------|-----------------|
D|-----------------|-1-----------------|-----------------|
A|-----------------|-------------------|-----------------|
E|-----------------|-------------------|-----------------|
 |
 |                   H       E SSS SS S  Q   Q   Q   Q
E|-----------------|----------------3--|-6---6---6---6---|
B|-----------------|-------------4-----|-----------------|
G|-----------------|-----------3-------|-----------------|
D|-----------------|-------------------|-----------------|
A|-----------------|-------------------|-----------------|
E|-----------------|-------------------|-----------------|
 |
 | Q   Q   Q   Q     Q   Q   H           E E E E E E E E
E|-----------------|-------------------|-----------------|
B|-----------------|-------------------|-----------------|
G|-----------------|-------------------|-------------0---|
D|-----------------|-------------------|---------1-----1-|
A|-3---3---3---3---|-------------------|-----1-----1-----|
E|-----------------|-?-----------------|-3-?---3---------|
 |
 | Q   Q   Q   Q     Q   Q   H           H       H
E|-----------------|-------------------|-----------------|
B|-----------------|-------------------|-----------------|
G|-----------------|-------------------|-----------------|
D|-----------------|-------------------|-----------------|
A|-----------------|-------------------|-----------------|
E|-?---?---?---?---|-?-----------------|-?---------------|


               |--3--|              |---3----|
   Q   Q   Q   S  S  S  S  S   S SE S  S  S  S  S  S  S SE Q
E|-10--10--11--11-11-13-13-11|-11---16-16-18-16-18-15-16---15--|
B|-------------------16----15|---------------------------------|
G|---------------------------|---------------------------------|
D|---------------------------|---------------------------------|
A|---------------------------|---------------------------------|
E|---------------------------|---------------------------------|
 |
 |
 |
 |
 |             |--3--|              |---3----|
 | Q   Q   Q   S  S  S  S  S   S SE S  S  S  S  S  S  S SE Q
E|-------------------1--1----|-4----4--4--6--4--6--3--4----3---|
B|-3---3---4---4--4--4-----4-|-4-------------------------------|
G|-------------------------7-|---------------------------------|
D|---------------------------|---------------------------------|
A|---------------------------|---------------------------------|
E|---------------------------|---------------------------------|
 |
 | E E E E E E E        E      E  E E           E     E  E E E
E|---------------------------|---------------------------------|
B|---------------------------|---------------------------------|
G|-1---1---0---0-------------|---------------------------------|
D|---3---3---1----------1----|-3----3-----------------1----1---|
A|---------------------------|----1-------------1--------1---1-|
E|---------------------------|---------------------------------|
 |
 | Q   Q   Q   Q               Q    Q                 Q    Q
E|---------------------------|---------------------------------|
B|---------------------------|---------------------------------|
G|---------------------------|---------------------------------|
D|---------------------------|---------------------------------|
A|---------------------------|---------------------------------|
E|-?-------?-----------------|-?----------------------?--------|
   ?


   Q    Q   E SSS SS S  Q   Q   Q   Q
E|-13---------6-11-15-|-18--18--18--18--|
B|--------------------|-----------------|
G|--------------------|-----------------|
D|--------------------|-----------------|
A|--------------------|-----------------|
E|--------------------|-----------------|
 |
 | Q    Q   E SSS SS S  Q   Q   Q   Q
E|-1---------------3--|-6---6---6---6---|
B|--------------4-----|-----------------|
G|------------3-------|-----------------|
D|--------------------|-----------------|
A|--------------------|-----------------|
E|--------------------|-----------------|
 |
 | E  E E E E E E  E    E E E E E E E E
E|--------------------|-----------------|
B|--------------------|-----------------|
G|----0---------------|-------------0---|
D|-0--1-0-1-0---------|---------1-----1-|
A|------8-3-1-3-1-----|-----1-----1-----|
E|------------4-3--4--|-3-?---3---------|
 |                 ?
 |
 | Q    Q   H           H       H
E|--------------------|-----------------|
B|--------------------|-----------------|
G|--------------------|-----------------|
D|--------------------|-----------------|
A|--------------------|-----------------|
E|-?------------------|-?---------------|
   ?

       |---3----|             |---3----|
   Q   S  S  S  S  S  S  S SE S  S  S  S  S  S   S SE Q   Q   E E
E|-10--10-10-11-10-11-80-10---11-11-13-11-13-10|-11---13--6---8-10|
B|---------------------------------------------|------------------|
G|---------------------------------------------|------------------|
D|---------------------------------------------|------------------|
A|---------------------------------------------|------------------|
E|---------------------------------------------|------------------|
 |
 |     |---3----|             |---3----|
 | Q   S  S  S  S  S  S  S SE S  S  S  S  S  S   S SE Q   Q   E E
E|----------------------------------1-----1----|-1----1-----------|
B|-3---3--3--4--3--4--1--3----4--4-----4-----3-|-4------------1-3-|
G|---------------------------------------------|----------3---1---|
D|---------------------------------------------|------------------|
A|---------------------------------------------|------------------|
E|---------------------------------------------|------------------|
 |
 | E E E           E     E  E E           E      E  E E E E E E E
E|---------------------------------------------|------------------|
B|---------------------------------------------|-1----1-----------|
G|-1---1-----------------0----0----------------|----------1-------|
D|---3-------------3--------1-------------1----|----1---1---0-1-3-|
A|---------------------------------------------|------------------|
E|---------------------------------------------|------------------|
 |
 | Q   Q                 Q    Q                  Q    Q   Q   Q
E|---------------------------------------------|------------------|
B|---------------------------------------------|------------------|
G|---------------------------------------------|------------------|
D|---------------------------------------------|------------------|
A|---------------------------------------------|------------------|
E|-?---------------------?---------------------|-?--------?-------|
   ?                     ?                       ?        ?


   H        E  E  E  E   H        E  E  E  E   E  Q   E  E  Q    E
E|-11+------11-13-10-6-|-15+------15-16-13-10|-18-18--18+18-18---18+|
B|---------------------|---------------------|----------------------|
G|---------------------|---------------------|-15-15--15+15-15---15+|
D|---------------------|---------------------|----------------------|
A|---------------------|---------------------|----------------------|
E|---------------------|---------------------|----------------------|
 |
 | Q    Q   Q  E  E  E   H        E  E  E  E   H         E  E  E E
E|-------------1-------|-------------1-------|-3+--------3--4--1----|
B|-4+-------4-----3----|-4+-------4-----3----|-------------------3--|
G|-0-----------------3-|-------------------3-|----------------------|
D|---------------------|---------------------|----------------------|
A|---------------------|---------------------|----------------------|
E|---------------------|---------------------|----------------------|
 |
 | E  E E E E  E  E  E   E  E E E E  E  E  E   H    Q    E  E  Q E
E|---------------------|---------------------|----------------------|
B|---------------------|---------------------|----------------------|
G|---------------------|---------------------|----------------------|
D|-1-------------------|---------------------|------1+---1+-3+-0----|
A|----1---1----1-----1-|----1---1----1-----1-|--------------6--8-1--|
E|------3---4-----4----|-3----3---4-----4----|-?---------?--1-------|
 |          ?     ?      ?    ?   ?     ?
 |
 | E  E E E Q     Q      E  E E E Q     Q      H         E  E  E E
E|---------------------|---------------------|----------------------|
B|---------------------|---------------------|----------------------|
G|---------------------|---------------------|----------------------|
D|---------------------|---------------------|----------------------|
A|---------------------|---------------------|----------------------|
E|----?-?-?-?-----?----|----?-?-?-?-----?----|-?---------?--?--?-?--|



   E  Q   E  E  Q    E    E  S SS SS SE  E  S SS S  E  E SSSSE E SSSS
E|-18-18--18+18-18---18+|-18-15-15-15-15-11-11-11-|-11-6-6-6-6-3-3---|
B|----------------------|-------------------------|----------------4-|
G|-15-15--15+15-15---15+|-15----------------------|------------------|
D|----------------------|-------------------------|------------------|
A|----------------------|-------------------------|------------------|
E|----------------------|-------------------------|------------------|
 |
 | H         E  E  E E    E  E  S SS SE  E  S SS S  E  E SSSSE E Q
E|--------------1-------|-3-----3--3--3-----------|------------------|
B|-4+--------4-----3----|----------------4--4--4--|-4----------------|
G|-------------------3--|-0-----------------------|----3-3-3-3-------|
D|----------------------|-------------------------|------------------|
A|----------------------|-------------------------|------------------|
E|----------------------|-------------------------|------------------|
 |
 | H         E  E  E E    Q     Q     Q     Q       Q    Q   Q   Q
E|----------------------|-------------------------|------------------|
B|----------------------|-------------------------|------------------|
G|-0+--------0----------|-------0-----------0-----|------0---0---0---|
D|--------------6--3-0--|-1-----1-----------1-----|------1---1---1---|
A|----------------------|-------1-----------1-----|------1---1---1---|
E|-3+--------3--4-------|-------3-----------3-----|------3---3---3---|
 |
 | H         E  E  E E    Q     Q     Q     Q       Q    Q   Q   Q
E|----------------------|-------------------------|------------------|
B|----------------------|-------------------------|------------------|
G|----------------------|-------------------------|------------------|
D|----------------------|-------------------------|------------------|
A|----------------------|-------------------------|------------------|
E|-?---------?--?--?-?--|-?-----?-----------?-----|------?---?---?---|
                                ?           ?            ?   ?   ?


   E E  S SS SE  E  S SS S  E  E SSSSE E SSSS  E E  S SS SE  E  S SS S
E|---13-13-13-13-10-10-10-|-10-7-7-7-7-1-1---|---15-15-15-15-11-11-11-|
B|------------------------|----------------3-|------------------------|
G|------------------------|------------------|------------------------|
D|------------------------|------------------|------------------------|
A|------------------------|------------------|------------------------|
E|------------------------|------------------|------------------------|
 |
 | E E  S SS SE  E  S SS S  E  E SSSSE E Q     E E  S SS SE  E  S SS S
E|-7-1--1--1--1-----------|-1----------------|-8-3--3--3--3-----------|
B|---------------3--3--3--|----3-3-3-3-------|---------------4--4--4--|
G|------------------------|------------------|------------------------|
D|------------------------|------------------|------------------------|
A|------------------------|------------------|------------------------|
E|------------------------|------------------|------------------------|
 |
 | Q    Q     Q     Q       Q    Q   Q   Q     Q    Q     Q     Q
E|------------------------|------------------|------------------------|
B|------------------------|------------------|------------------------|
G|------0-----------0-----|------0---0---0---|------0-----------0-----|
D|------3-----------3-----|------3---3---3---|------1-----------1-----|
A|------2-----------2-----|------2---2---2---|------3-----------3-----|
E|------3-----------3-----|------3---3---3---|------3-----------3-----|
 |
 | Q    Q     Q     Q       Q    Q   Q   Q     Q    Q     Q     Q
E|------------------------|------------------|------------------------|
B|------------------------|------------------|------------------------|
G|------------------------|------------------|------------------------|
D|------------------------|------------------|------------------------|
A|------------------------|------------------|------------------------|
E|------?-----------?-----|------?---?---?---|------?-----------?-----|
        ?           ?            ?   ?   ?          ?           ?


   E  E SSSSE E SSSS  E  E  S SS SE  E  S SS S  E  E  S SS SE  E SSSS
E|-11-8-8-8-8-3-3---|----17-17-17-17-14-14-14-|-14-10-10-10-10-5-5-2-|
B|----------------4-|-------------------------|----------------------|
G|------------------|-------------------------|----------------------|
D|------------------|-------------------------|----------------------|
A|------------------|-------------------------|----------------------|
E|------------------|-------------------------|----------------------|
 |
 | E  E SSSSE E Q     E  E  S SS SE  E  S SS S  E  E  S SS SE  E Q
E|------------------|-10-5--5--5--5--2--2--2--|-2--------------------|
B|-4--1-1-1-1-------|-------------------------|----3--3--3--3--------|
G|------------------|-------------------------|----------------------|
D|------------------|-------------------------|----------------------|
A|------------------|-------------------------|----------------------|
E|------------------|-------------------------|----------------------|
 |
 | Q    Q   Q   Q     Q     Q     Q     Q       Q     Q     Q    Q
E|------------------|-------------------------|----------------------|
B|------------------|-------------------------|----------------------|
G|------0---0---0---|-------2-----------2-----|-------2-----2----2---|
D|------1---1---1---|-------0-----------0-----|-------0-----0----0---|
A|------3---3---3---|-------3-----------3-----|-------3-----3----3---|
E|------3---3---3---|-------5-----------5-----|-------5-----5----5---|
 |
 | Q    Q   Q   Q     Q     Q     Q     Q       Q     Q     Q    Q
E|------------------|-------------------------|----------------------|
B|------------------|-------------------------|----------------------|
G|------------------|-------------------------|----------------------|
D|------------------|-------------------------|----------------------|
A|------------------|-------------------------|----------------------|
E|------?---?---?---|-------?-----------?-----|-------?-----?----?---|
        ?   ?   ?           ?           ?             ?     ?    ?


   E E SSSSE E SSSS  E E SSSSE E SSSS  E E SSSSE E SSSS  E E SSSSE E E E
E|-6-3-3-3-3-------|-----------------|-3---------------|-----------------|
B|-----------3-3-3-|-3---------------|---4-4-4-4-------|-----------------|
G|-----------------|---3-3-3-3-0-0---|-----------3-3-3-|-3-0-0-0-0-------|
D|-----------------|---------------0-|-----------------|-----------1-1---|
A|-----------------|-----------------|-----------------|---------------4-|
E|-----------------|-----------------|-----------------|-----------------|
 |
 |                                     E E SSSSE E Q
E|-----------------|-----------------|-----------------|-----------------|
B|-----------------|-----------------|-----------------|-----------------|
G|-----------------|-----------------|-0---------------|-----------------|
D|-----------------|-----------------|---1-1-1-1-------|-----------------|
A|-----------------|-----------------|-----------------|-----------------|
E|-----------------|-----------------|-----------------|-----------------|
 |
 | Q   Q   Q   Q     Q   Q   Q   Q     E E SSSSE E SSSS  E E SSSSE E E E
E|-----------------|-----------------|-----------------|-----------------|
B|-----------------|-----------------|-----------------|-----------------|
G|-----3-------3---|-----------------|-----------------|-----------------|
D|-----5-------5---|-----------------|-----------------|-----------------|
A|-----5-------5---|-----1---1---1---|-----------1-1-1-|-1---------------|
E|-----6-------6---|-----3---3---3---|-3-?-?-?-?-------|---3-3-3-3-?-?-?-|
 |                       ?   ?   ?
 |
 | Q   Q   Q   Q     Q   Q   Q   Q     E E Q   E SSSSSS  E E SSSSE E E E
E|-----------------|-----------------|-----------------|-----------------|
B|-----------------|-----------------|-----------------|-----------------|
G|-----------------|-----------------|-----------------|-----------------|
D|-----------------|-----------------|-----------------|-----------------|
A|-----------------|-----------------|-----------------|-----------------|
E|-----?-------?---|-----?---?---?---|-?---------?-?-?-|-?-?-?-?-?-?-?-?-|
       ?       ?


   Q   Q   Q   Q     Q   Q   H         H       E E E E   E E E E E E Q
E|-----2---3---6---|-10--------------|-----------------|-----------------|
B|-----3---3-------|-7---------------|-3---------------|-----0---1-------|
G|-------------7---|-7---------------|-------------0---|-2---------------|
D|-----------------|-----------------|---------4-------|-----------------|
A|-----------------|-----------------|-----------------|-----------------|
E|-----------------|-----------------|-----------------|-----------------|
 |
 | Q   Q   Q   Q     Q   Q   Q   Q     Q   Q   E E E E   E E E E E E E E
E|-----------------|-----------------|-----------------|-----------------|
B|-----------------|-----------------|-----------------|-----------------|
G|-----2---0---0---|-2---------------|-----------------|---------0---2---|
D|-0---4---8---8---|-4---0---0-------|-------------0---|-2---4-----------|
A|-----------------|-----------------|-----2---3-------|-----------------|
E|-----------------|-----------------|-----------------|-----------------|
 |
 | SSE E E E E E E   Q   Q   Q   Q     Q   Q   E E E E   E E E E E E E E
E|-----------------|-----------------|-----------------|-----------------|
B|-----------------|-----------------|-----------------|-----------------|
G|-----------------|-----------------|-----------------|-----------------|
D|-------0---0-----|-0---------------|-----------------|-----0---2---4---|
A|-----3---1---1---|-----------------|---------0---2---|-3---------------|
E|-?-------------3-|-----?---?-------|-----3-----------|-----------------|
 |
 | E E E E E E E E   Q   Q   Q   Q
E|-----------------|-----------------|-----------------|-----------------|
B|-----------------|-----------------|-----------------|-----------------|
G|-----------------|-----------------|-----------------|-----------------|
D|-----------------|-----------------|-----------------|-----------------|
A|-----------------|-----------------|-----------------|-----------------|
E|-?-?-?-?-?-?-?-?-|-?---?---?-------|-----------------|-----------------|



   E E E E E E E E   H       Q   Q     H       E E E E   E E E E E E Q
E|-----------0-----|-----------------|-10------2---3---|-5---7---8-------|
B|-0-1-2-3-4---1---|-----------------|-----------------|-----------------|
G|---------------2-|-0---------------|-----------------|-----------------|
D|-----------------|---------4-------|-----------------|-----------------|
A|-----------------|-----------------|-----------------|-----------------|
E|-----------------|-----------------|-----------------|-----------------|
 |
 | E E E E E E E E   H       Q   Q     H       E E E E   E E E E E E Q
E|-----------------|-----------------|-----------------|-----------------|
B|-------0---------|-----------------|-3---------------|-----0---1-------|
G|---2-3-----0-----|-----------------|-------------0---|-2---------------|
D|---------4---2---|-----------------|---------4-------|-----------------|
A|---------------4-|-2-------0-------|-----------------|-----------------|
E|-----------------|-----------------|-----------------|-----------------|
 |
 | Q   Q   Q   Q     E E E E E E E E   E E Q   E E E E   E E E E E E E E
E|-----------------|-----------------|-----------------|-----------------|
B|-----------------|-----------------|-----------------|-----------------|
G|-0---------------|-----------------|-----------------|-----------------|
D|-----------------|-----------------|-----------------|-----------------|
A|-----------------|-----------------|-----2---3-------|-------------0---|
E|---------?-------|-?-?-?-?-?-?-0-2-|-3-----------?---|-0---2---3-------|
 |
 |                                     Q   Q   E E E E   E E E E E E E E
E|-----------------|-----------------|-----------------|-----------------|
B|-----------------|-----------------|-----------------|-----------------|
G|-----------------|-----------------|-----------------|-----------------|
D|-----------------|-----------------|-----------------|-----------------|
A|-----------------|-----------------|-----------------|-----------------|
E|-----------------|-----------------|-----?---?---?---|-?---?---?---?---|



   Q   H       Q     H       Q   Q     E E SSSSQ   Q     E E SSSSQ   Q
E|-7---15------9---|-12------10------|-0---------------|-----------------|
B|-8---------------|-----------------|---3-1-0---------|-1-0-------------|
G|-----16----------|-----------------|---------2---2---|-----2-0---------|
D|-----------------|-----------------|-----------------|---------4-------|
A|-----------------|-----------------|-----------------|-----------------|
E|-----------------|-----------------|-----------------|-----------------|
 |
 | H.  H       Q     H       Q   Q
E|-----3-------0---|-3-------2-------|-----------------|-----------------|
B|-0---------------|-----------------|-----------------|-----------------|
G|-----------------|-----------------|-----------------|-----------------|
D|-----------------|-----------------|-----------------|-----------------|
A|-----------------|-----------------|-----------------|-----------------|
E|-----------------|-----------------|-----------------|-----------------|
 |
 | Q   H       Q     H       Q   Q                       E E SSSSQ   Q
E|-----------------|-----------------|-----------------|-----------------|
B|-----------------|-----------------|-----------------|-----------------|
G|-------------0---|-----------------|-----------------|-----------------|
D|-----2-----------|---------0-------|-----------------|-2-0-------------|
A|-2---------------|-4---------------|-----------------|-----3-2-0---0---|
E|-----------------|-----------------|-----------------|-----------------|
 |
 | Q   Q   Q   Q     E E E E E E E E   E E E E E E E E   E E E E E E E E
E|-----------------|-----------------|-----------------|-----------------|
B|-----------------|-----------------|-----------------|-----------------|
G|-----------------|-----------------|-----------------|-----------------|
D|-----------------|-----------------|-----------------|-----------------|
A|-----------------|-----------------|-----------------|-----------------|
E|-?---?---?---?---|-?-?-?-?-?-?-?-?-|-?-?-?-?-?-?-?-?-|-?-?-?-?-?-?-?-?-|



   E  E  SSSSSSSSSSSS  E E SSSSE E E E   E E SSSSE E E E   E E SSSSSSE E E
E|-12-10-8-7-5-5-5-5-|-8-7-5-3-2-5-2-5-|-----------------|-----------5-2-5-|
B|-------------------|-----------------|-1---------------|-1-----------3---|
G|-------------------|-----------------|---3-2-0---2---2-|---3-2-0---------|
D|-------------------|-----------------|---------4---4---|---------4-------|
A|-------------------|-----------------|-----------------|-----------------|
E|-------------------|-----------------|-----------------|-----------------|
 |
 | E  E  SSSSQ   Q     E E SSSSQ   Q
E|-------------------|-----------------|-----------------|-----------------|
B|-1--0--------------|-----------------|-----------------|-----------------|
G|-------2-0---------|-2-0-------------|-----------------|-----------------|
D|-----------4-------|-----4-2-0-------|-----------------|-----------------|
A|-------------------|-----------------|-----------------|-----------------|
E|-------------------|-----------------|-----------------|-----------------|
 |
 | E  E  SSSSQ   Q     E E SSSSQ   Q     E E SSSSQ   Q     E E SSSSQ   Q
E|-------------------|-----------------|-----------------|-----------------|
B|-------------------|-----------------|-----------------|-----------------|
G|-------------------|-----------------|-----------------|-----------------|
D|-------------------|-----------------|-----------------|-----------------|
A|-------0-2-3-------|-----0-2-3-------|-----0-0-0-------|-----0-0-0-------|
E|-2--3--------------|-2-3-------------|-2-3-8-8-8-------|-2-3-8-8-8-------|
 |
 | E  E  E E E E E E   E E E E Q   Q     H       Q   Q     H       Q   Q
E|-------------------|-----------------|-----------------|-----------------|
B|-------------------|-----------------|-----------------|-----------------|
G|-------------------|-----------------|-----------------|-----------------|
D|-------------------|-----------------|-----------------|-----------------|
A|-------------------|-----------------|-----------------|-----------------|
E|-?--?--?-?-?-?-?-?-|-?-?-?-?-?-------|-?-------?-------|-?-------?-------|


                                                                     |-3-|
   E E E E E E E E   Q   Q   E SSSSSS  Q   Q   Q   Q     Q   Q   Q   S S S S S
E|-8-5-8-5-8-5-8-5+|-8-----------3-7-|-10--10--10--10--|-2---2---3---3-3-5-5-3|
B|-----------------|-10--------3-----|-----------------|-----------------8---7|
G|-----------------|-----------------|-----------------|----------------------|
D|-----------------|-----------------|-----------------|----------------------|
A|-----------------|-----------------|-----------------|----------------------|
E|-----------------|-----------------|-----------------|----------------------|
 |
 | E E E E E E E E   Q   Q   H
E|---2---2---2---2-|-----------------|-----------------|----------------------|
B|-3---4---3---4---|-3---------------|-----------------|----------------------|
G|-----------------|-----------------|-----------------|----------------------|
D|-----------------|-----------------|-----------------|----------------------|
A|-----------------|-----------------|-----------------|----------------------|
E|-----------------|-----------------|-----------------|----------------------|
 |
 |                                     E E E E E E E E   E E E E E E E     E
E|-----------------|-----------------|-----------------|----------------------|
B|-----------------|-----------------|-------------0---|-1---1---0---0--------|
G|-----------------|-----------------|---------0-----0-|---2---2---0-------0--|
D|-----------------|-----------------|-----0-----0-----|----------------------|
A|-----------------|-----------------|-2-----2---------|----------------------|
E|-----------------|-----------------|---3-------------|----------------------|
 |
 |                                     H       H         Q   Q   Q   Q
E|-----------------|-----------------|-----------------|----------------------|
B|-----------------|-----------------|-----------------|----------------------|
G|-----------------|-----------------|-----------------|----------------------|
D|-----------------|-----------------|-----------------|----------------------|
A|-----------------|-----------------|-----------------|----------------------|
E|-----------------|-----------------|-?---------------|-?-------?------------|
                                                         ?


   SSE Q   H   Q     Q   Q   E SSSSSS  Q   Q   Q   Q
E|-3---8---7
Добавлено: 04.07.2012
Другие материалы по этой песне:
  • Аккорды и текст

Страница создана 04.07.2012
http://primanota.ru/mozart-wolfgang-amadeus/k525-eine-kleine-nachtmusik-iv-rondo-chords.htm
Привет, Гость.
Предлагаем пройти революционный курс по гитаре.
Подарок от PrimaNota.Ru, забирай!