PrimaNota.ru - самый крупный в мире бесплатный архив песенных текстов, аккордов, табулатур и нот


Motorhead - Silence When You Speak To Me - бас-таба, видео

Регистрация Запомнить меня
Войти через:  Facebook Google Twitter Vk Yandex Mail.ru

Motorhead - Silence When You Speak To Me - бас-таба, видео

Печатать
Просмотров: 198
Artist: Motorhead
Title: Silence When You Speak To Me
Album: Aftershock
Year: 2013
Eb Ab Db Gb

Riff 1 (intro, verse)
|-------------------------------------------|
|-------------------------------------------|
|-------------------------------------------|
|-0-x-0-xxx-0-x-0-xxx-0-x-0-xxx-0-xx-0-3--3-|

Riff 2 (verse variation, "Remember.....remember me")
|------------------------------------|
|------------------------------------|
|-3--3-3-3-3-3-3-0--0-0-0-0-0-0-0-0-0|
|------------------------------------|

Riff 3 (pre-chorus)
|-------------------------------------------------------------|
|-------------------------------------------------------------|
|-3--3-3-3-3-3-3-0--0-0-0-0-0-0-0-0-2-2-2-2-2-2-2-2-2-5555555-|
|-------------------------------------------------------------|

Riff 4 (chorus)
|-----------------------------------------------------------|
|-7--5-7--5-7-5--7--5-7--5-7-5------------------------------|
|------------------------------7--5-7--5-7-5--7--5-7--5-7-5-|
|-----------------------------------------------------------|

End of chorus.
|---------------------------------------------------------|
|---------------------------------------------------------|
|-5-5-5-5-5-5-5-5-5-5-5-5-5-------------------------------|
|---------------------------7-7-7-7-7-7-7-7-7-7-7-7-7-7-7-|

Riff 5 (solo rhytm)
|-------------------------------------------------------------------------------|
|-------------------------------------------------------------------------------|
|-777777777777777777777777777777777777777777777777777777777-5555555555555555555-|
|-------------------------------------------------------------------------------|

Riff 6 (outro)
|--------------------------------------------------------------------|
|---------------------------------------77777777777777777777777777---|
|-7--7-7--5----------------------------------------------------------|
|-------------5----55555555555555555555----------------------------5-|
Добавлено: 21.01.2014
Другие материалы по этой песне:
  • Аккорды и текст

Страница создана 21.01.2014
http://primanota.ru/motorhead/silence-when-you-speak-to-me-chords.htm
Привет, Гость.
Предлагаем пройти революционный курс по гитаре.
Подарок от PrimaNota.Ru, забирай!