PrimaNota.ru - самый крупный в мире бесплатный архив песенных текстов, аккордов, табулатур и нот


Motorhead - Please Dont Touch - текст песни, таба, бас-таба, видео

Регистрация Запомнить меня
Войти через:  Facebook Google Twitter Vk Yandex Mail.ru

Motorhead - Please Dont Touch - текст песни, таба, бас-таба, видео

Печатать
Просмотров: 346
Авторы музыки: Frederick Heath, Guy Robinson

      Please Dont Touch - Motorhead

Tuning: Standard
The song is in the key of E.
The guitar solo is in E pentatonic minor.

INTRO:


Figure 1:


 E --3--3--3--3--3--3--3--3--3--0---------------------------|
 B --0--0--0--0--0--0--0--0--0-----3------------------------|
 G -----------------------------------0--2--0---------------|
 D --------------------------------------------2--0--2------|
 A ---------------------------------------------------------|
 E ---------------------------------------------------------|

(E5)
1ST VERSE:

Figure 2:

     D5/E5  A   D   D5/E5          D5/E5  A   D   D5/E5
 E -----------------------------|-----------------------------|
 B -----------------------------|-----------------------------|
 G ---7/9-------7---7/9---7/9---|---7/9-------7---7/9---7/9---|
 D ---7/9---7---7---7/9---7/9---|---7/9---7---7---7/9---7/9---|
 A ---5/7---7---5---5/7---5/7---|---5/7---7---5---5/7---5/7---|
 E ---------5-------------------|---------5-------------------|

Play Figure 2 CHORUS:

(Please don't touch ... ect)

2ND VERSE


Play Figure 2 Repeat CHORUS


Play Figure 1

GUITAR SOLO:
(each staff shows 2 measures, 4/4 time)


  (E)
 E ---------------12--------12--------12--------------------|
 B --12-12--------12--------12--------12------12------------|
 G ----------14^w------14^w------14^w------14----14-12------|
 D ---------------------------------------------------------|
 A ---------------------------------------------------------|
 E ---------------------------------------------------------|


  (E)
 E ---------------------------------------------------------|
 B --14^s---14^s---14^s---14^s---14^s-----------------------|
 G --14^w---14^w---14^w---14^w---14^w---14p12------12-------|
 D --------------------------------------------14-----------|
 A ---------------------------------------------------------|
 E ---------------------------------------------------------|


  (A)
 E ---------------------------------------------------------|
 B ----5---8p5---5---8p5--5---8p5---5---8p5---5---8^w-------|
 G --7---------7--------7---------7---------7---------------|
 D ---------------------------------------------------------|
 A ---------------------------------------------------------|
 E ---------------------------------------------------------|


  (E)
 E ---------------------------------------------------------|
 B ---------------------------------------------------------|
 G --9^w--9^wr(9)--9p7---7--[9^w-hb-9-9-9-9]r(9)--7-----7---|
 D --------------------9-----------------------------9------|
 A ---------------------------------------------------------|
 E ---------------------------------------------------------|


  (B)                                  (A)
 E ---------------------------------------------------------|
 B ---------------------------------------------------------|
 G --7-9p7---7----------------------------------------------|
 D --------9---9---7h9p7-5---5h7p5--------------------------|
 A --------------------------------7----7--5--7--5----------|
 E -------------------------------------------------5-------|


  (E)
 E ---------------------------------------------------------|
 B ---------------------------------------------------------|
 G ----------------------------4/7--7--9p7-----7------------|
 D ------------------5--7p5-----------------9---------------|
 A -----5--7p5---5----------7-------------------------------|
 E --0---------7--------------------------------------------|


  (E)
 E ---------------------------------------------------------|
 B --14^sr(14)---------------------14^sr(14)--12--14--12----|
 G --14^wr(14)--12--14p12------12--14^wr(14)--12--14--12----|
 D ------------------------14-------------------------------|
 A ---------------------------------------------------------|
 E ---------------------------------------------------------|


  (E)
 E ----------12-----------12-----------12-------------------|
 B -------12-----------12-----------12------15^w---15^w-----|
 G --14^w---------14^w---------14^w-------------------------|
 D ---------------------------------------------------------|
 A ---------------------------------------------------------|
 E ---------------------------------------------------------|


  (A)
 E ---------------------------------------------------------|
 B ---------------------------------------------------------|
 G --11^sr(11)-9--11-9--11-12--11h12p11-9--11-9--12-11-9-11-|
 D ---------------------------------------------------------|
 A ---------------------------------------------------------|
 E ---------------------------------------------------------|


  (E)
 E ---------------------------------------------------------|
 B ---------------------------------------------------------|
 G ---9h11p9----------------------------------2^w-----------|
 D ----------11-9---6h9p6---4h6p4---5-2-2-0-----------------|
 A ---------------------------------------------------------|
 E ---------------------------------------------------------|


  (B)                       (A)
 E ---------------------------------------------------------|
 B ---------------------------------10----------------------|
 G --9^w---9^w---9p7---7---[9^w--hb----9]r(9)--7h9p7-----7--|
 D ------------------9--------------------------------9-----|
 A ---------------------------------------------------------|
 E ---------------------------------------------------------|


  (E)
 E -----------------|
 B -----------------|
 G -----------------|
 D ----0tr2---------|
 A -----------------|
 E -----------------|

BRIDGE

3RD VERSE:


Repeat CHORUS

Play Figure 1

(E5)
Don't you touch me, baby,'cause I'm shaking so much  (3x)

 E -------------------------------------------------------|
 B ------14^sr(14)-------------------------12--15--15^w---|
 G --14--14^wr(14)p12-----12-12------14^w-----------------|
 D -------------------14--------14------------------------|
 A -------------------------------------------------------|
 E -------------------------------------------------------|


E5  (6 measures)


 E -------------------------------------------------------|
 B --/5--5--5--5--5--5--5--5---5--3--0--------------------|
 G -------------------------------------3--2--0-----------|
 D ----------------------------------------------2--0-----|
 A -------------------------------------------------------|
 E -------------------------------------------------------|

 E ------------------------------------|
 B ---14^sr(14)----14^sr(14)-----------|
 G ---14^wr(14)----14^wr(14)p12--------|
 D ------------------------------14----|
 A ------------------------------------|
 E ------------------------------------|



 E ------------------------------------|
 B ---14^s---15------------------------|
 G ---14^w--------14^wr(14)p12---------|
 D -----------------------------14-----|
 A ------------------------------------|
 E ------------------------------------|


                                                    (E)
 E --3--3--3--3--3--3--3--3--3--0---------------------------|
 B --0--0--0--0--0--0--0--0--0-----3------------------------|
 G -----------------------------------0--2--0---------------|
 D --------------------------------------------2--0--2------|
 A --------------------------------------------------2------|
 E ---------------------------------------------------------|

^...bend  (q=quarter tone, s=semi-tone, w=whole tone)
h...hammer on
hb..hold bend
r...release bend
p...pulloff
/...slide up
tr..trill
Добавлено: 26.08.2013
Другие материалы по этой песне:
  • Аккорды и текст

Страница создана 04.06.2012
http://primanota.ru/motorhead/please-dont-touch-chords.htm
Привет, Гость.
Предлагаем пройти революционный курс по гитаре.
Подарок от PrimaNota.Ru, забирай!