PrimaNota.ru - самый крупный в мире бесплатный архив песенных текстов, аккордов, табулатур и нот


Motorhead - Iron Horse - текст песни, таба, видео

Регистрация Запомнить меня
Войти через:  Facebook Google Twitter Vk Yandex Mail.ru

Motorhead - Iron Horse - текст песни, таба, видео

Печатать
Просмотров: 262
Авторы: Guy Lawrence, Mick Brown, Phil Taylor

Song name: Iron Horse
Band: Motorhead
Album: Live at Hammersmith
Transcribed by MikiMixx. mikimixx@serbianna.com

Notes: Tune down half way. Blast distortion, amp.
       Preferably use a Fender for the dry sound.
       String bending up is represented with
       this symbol '


Main riff repeat 4 times at intro, and later after Chorus
e|------------------------------------------------------|
B|-----------7--7-7-5-----------------------------------|
G|-----------7--7-7-5-----------------------------------|
D|--2--------7--7-7-5-----------------------------------|
A|--0------3--------------------------------------------|
E|-----3-4----------------------------------------------|

Rythm play 2x on 3rd start singing.
Listen to cord variations at repeats
e|------------------------------------------------------|
B|------------------------------------------------------|
G|--2----5----777-5--2----5-7--77-5---------------------|
D|--2----5----777-5--2----5-7--77-5---------------------|
A|----0----0-----------0--------------------------------|
E|------------------------------------------------------|

e|------------------------------------------------------|
B|------------------------------------------------------|
G|--2----5----777-5--2-2--5-7-77-5----------------------|
D|--2----5----777-5--2-2--5-7-77-5----------------------|
A|----0----0---------0-0--------------------------------|
E|------------------------------------------------------|

Last Verse: (as the chromium gleams) ends on open A
e|------------------------------------------------------|
B|------------------------------------------------------|
G|--2----5----777-5--2-2--5-2---------------------------|
D|--2----5----777-5--2-2--5-2---------------------------|
A|----0----0---------0-0----0---------------------------|
E|------------------------------------------------------|

Chorus
e|----------------|-------------------------------------|
B|--10--9--10--9--|-------------------------------------|
G|--10--9--10--9--|-------------------------------------|
D|--10--9--10--9--|--5--5-6-7---------------------------|
A|--8---7--8---7--|--3--3-4-5---------------------------|
E|----------------|-------------------------------------|

Solo: Play solo at 12-15 frets, move to 10-12, end solo
like this:
e|----------------------8'------------------------------|
B|---8'--10'--13'--15'-----10'--13'--15'----------------|
G|------------------------------------------------------|
D|------------------------------------------------------|
A|------------------------------------------------------|
E|------------------------------------------------------|

     
Добавлено: 17.08.2013
Другие материалы по этой песне:
  • Аккорды и текст

Страница создана 17.08.2013
http://primanota.ru/motorhead/iron-horse-chords.htm
Привет, Гость.
Предлагаем пройти революционный курс по гитаре.
Подарок от PrimaNota.Ru, забирай!