PrimaNota.ru - самый крупный в мире бесплатный архив песенных текстов, аккордов, табулатур и нот


Motorhead - Go To Hell - аккорды и текст, таба, видео

Регистрация Запомнить меня
Войти через:  Facebook Google Twitter Vk Yandex Mail.ru

Motorhead - Go To Hell - аккорды и текст, таба, видео

Печатать
Просмотров: 182
Уроки эстрадного вокала в Санкт-Петербурге
Авторы: Eddie Clarke, Phil Taylor, Lemmy Kilmister

Go To Hell
Motorhead
RIFF
|----------------------------------------------------------------|
|----------------------------------------------------------------|
|--------------------------------------------11------12----------|
|----------------5-------------5-------------11------12----------|
|--5h7-------------7-------------7-----------9---9-9-10---10-9---|
|------0-0-0-0-0-----0-0-0-0-0-----0-0-0-0-0---------------------|
PM....... ......... ......... ...


CHORUS
|----------------------------------------------------------------------|
|----------------------------------------------------------------------|
|----------------------------------------------------------------------|
|--10----------10-9--8--7-----------10----------10-9--8--7-----5-------|
|--10----------10-9--8--7-----------10----------10-9--8--7-----5-------|
|--8-----------8--7--6--5-----------8-----------8--7--6--5-----3-------|


BRIDGE
|--------------------------|
|--------------------------|
|--------------------------|
|-----5---7p5---------4-5--|
|-5h7---7-----7p5-5h7------|
|--------------------------|



LYRICS:


Ya told me that ya wanted it
I knew it wasn't true
Turned out to be the facts babe
You know what you can do

CHORUS: You can go to hell, you can go to hell
Goodbye for you

Wrapped around your little finger
Under you thumb too
You know that I'm a singer
I'm singin' just for you

CHORUS

BRIDGE

GUITAR SOLO

I guess I betta get movin'
Lotta things I gotta do
I realize it was a waste of time
Talkin' sense to you

CHORUS

Hope ya got my little message
I hope you hear me
I thought ya might've been the answer
Obviously crazy

CHORUS
Добавлено: 05.01.2014
Другие материалы по этой песне:

Страница создана 09.03.2012
http://primanota.ru/motorhead/go-to-hell-chords.htm
Привет, Гость.
Предлагаем пройти революционный курс по гитаре.
Подарок от PrimaNota.Ru, забирай!