PrimaNota.ru - самый крупный в мире бесплатный архив песенных текстов, аккордов, табулатур и нот


Motley Crue - Angela - текст песни, бас-таба, видео

Регистрация Запомнить меня
Войти через:  Facebook Google Twitter Vk Yandex Mail.ru

Motley Crue - Angela - текст песни, бас-таба, видео

Печатать
Просмотров: 175
Artist:Motley Crue
Song:Angela
Album:Decade of Decadence
Bassist:Nikki Sixx
Tabber:Dev Fuld

This is a kickass song by the best band ever.

Key:
x = times a number
* = let it ring

Intro
F:------|------|------|-----------|-----------------|
C:------|------|------|-----------|5-3---5-3--------|
G:------|------|------|-----------|----5-----5-3----|
D:7-5-3*|7-5-3*|7-5-3*|--0-1-3-3-3|--------------5-3|

After Intro
F:---------------|
C:---------------|
G:----5x8-3x8----|
D:3x8---------3x8|

Verse
F:------|------|------|------|
C:------|------|------|------|
G:------|------|------|------|
D:7-5-3*|7-5-3*|7-5-3*|7-5-3*|

Pre-Chorus
F:---------------|----------------|
C:---------------|----------------|
G:---2-3*--3-----|---2-3*--3-5*-3*|
D:5*---------3x16|5*--------------|

Chorus
F:-------------------------------|
C:-------------------------------|
G:--------5-5-5-5-3-3-3-3--------|
D:3-3-3-3-----------------3-3-3-3|

Second version of chorus (theres a couple choruses where he does this)
F:---------------------------------------------------------------|
C:--------------------4-4-5-5-6-6-----2-2-3-3-4-4----------------|
G:----2-2-3-3-4-4-5-5-------------3-3-----------------2-2-3-3-4-4|
D:3-3---------------------------------------------3-3------------|

Bridge
F:------------------|
C:------------------|
G:5 (the whole time)|
D:------------------|

Solo...is the pre-chorus

That's it. I gotta say, this is one of my favorite Crue songs. It's an awesome tune so play 
it well. You can figure out the order yourself. Any questions or comments, e-mail me 
at rocklvson@yahoo.com
Добавлено: 23.02.2014
Другие материалы по этой песне:
  • Аккорды и текст

Страница создана 16.03.2012
http://primanota.ru/motley-crue/angela-chords.htm
Привет, Гость.
Предлагаем пройти революционный курс по гитаре.
Подарок от PrimaNota.Ru, забирай!