PrimaNota.ru - самый крупный в мире бесплатный архив песенных текстов, аккордов, табулатур и нот


Moose Blood - Kelly Kapowski - таба, видео

Регистрация Запомнить меня
Войти через:  Facebook Google Twitter Vk Yandex Mail.ru

Moose Blood - Kelly Kapowski - таба, видео

Печатать
Просмотров: 48
-------------------------------------------------------------------------------
                             Kelly Kapowski - Moose Blood
-------------------------------------------------------------------------------
Tabbed by: Eithan Hopkins

Tuning: Standard

Intro + Verse 
                'WOOO'
e|--000000000000--|---00000000000000000000000000000000000000000000000000000000000000000000000000000000---------|
B|--000000000000--|---00000000000000000000000000000000000000000000000000000000000000000000000000000000---------|
G|--888888888888--|---88888888888888888888888888888888888666666666666666666666666666666888888888888888---------|
D|--999999999999--|---99999999999999999999999999999999999777777777777777777777777777777999999999999999---2x----|
A|--999999999999--|---99999999999999999999999999999999999777777777777777777777777777777999999999999999---------|
E|--777777777777--|---77777777777777777777777777777777777555555555555555555555555555555777777777777777---------|


Chorus 

e|-000000000000000000000000000000000000000000-----|---xxxx----|
B|-000000000000000000000000000000000000000000-----|---xxxx----|
G|-999999999999999999999999999999999999999999-----|---xxxx----|
D|-999999999999999999999888888888888888888888--4x-|---xxxx----|
A|-777777777777777777777666666666666666666666-----|---xxxx----|
E|------------------------------------------------|---xxxx----|

Verse 2

e|--0000000000000000000000000000000000000000000000000000000000000000000000000000000000000000000000000000000----|
B|--7777777777777555555555555544444444447777777777777777555555555555555544444444444555555555555555444444444----|
G|----------------------------------------------------------------------------------------------------------2x-|
D|-------------------------------------------------------------------------------------------------------------|
A|-------------------------------------------------------------------------------------------------------------|
E|-------------------------------------------------------------------------------------------------------------|

Chorus 

e|-000000000000000000000000000000000000000000-----|---xxxx----|
B|-000000000000000000000000000000000000000000-----|---xxxx----|
G|-999999999999999999999999999999999999999999-----|---xxxx----|
D|-999999999999999999999888888888888888888888--4x-|---xxxx----|
A|-777777777777777777777666666666666666666666-----|---xxxx----|
E|------------------------------------------------|---xxxx----|

Bridge 
1:35

e|---------------------------------------------------------------------------|
B|---------------------------------------------------------------------------|
G|-----4-8-4---8-4---4-6-4---6-4---4-8-11---8-4---4-6-4---6-4----------------|
D|--4--------4-----2-------2-----4--------4-----2-------2------------4x------|
A|---------------------------------------------------------------------------|
E|---------------------------------------------------------------------------|

2:10 

e|------------------------------------------------------------------------------------------------------|
B|------------------------------------------------------------------------------------------------------|
G|------------------------------------------------------------------------------------------------------|
D|--9-9-9--9\7--9-9-9--9\7-11-11-11--11\7--9-9-9--9\7-9-9-9--9\7-9-9-9--9\7-11-11-11--11\7-9-9-9--9\7~--|
A|--9-9-9--9\7--9-9-9--9\7-11-11-11--11\7--9-9-9--9\7-9-9-9--9\7-9-9-9--9\7-11-11-11--11\7-9-9-9--9\7~--|
E|--7-7-7--7\5--7-7-7--7\5-9--9--9---9-\5--7-7-7--7\5-7-7-7--7\5-7-7-7--7\5-9--9--9---9-\5-7-7-7--7\5~--|


Outro

e|-----------------------------------|--------------|
B|-----------------------------------|--------------|
G|-----4-8-4---8-4---4-6-4---6-4-----|----8~--------|
D|--4--------4-----2-------2------2x-|--------------|
A|-----------------------------------|--------------|
E|-----------------------------------|--------------|


************************************

| /   slide up
| \   slide down
| h   hammer-on
| p   pull-off
| ~   vibrato
| +   harmonic
| x   Mute note
| b   Bend
| pb  Pre-bend
| br  Bend release
| pbr Pre-bend release
| brb Bend release bend

************************************
Добавлено: 26.03.2016
Другие материалы по этой песне:
  • Аккорды и текст

Страница создана 26.03.2016
http://primanota.ru/moose-blood/kelly-kapowski-chords.htm
Привет, Гость.
Предлагаем пройти революционный курс по гитаре.
Подарок от PrimaNota.Ru, забирай!