PrimaNota.ru - самый крупный в мире бесплатный архив песенных текстов, аккордов, табулатур и нот


Moose Blood - Girl - таба, видео

Регистрация Запомнить меня
Войти через:  Facebook Google Twitter Vk Yandex Mail.ru

Moose Blood - Girl - таба, видео

Печатать
Просмотров: 94
Уроки эстрадного вокала в Санкт-Петербурге
-------------------------------------------------------------------------------
                             Girl - Moose Blood
-------------------------------------------------------------------------------
Tabbed by: NS
E-mail: theneuroticshadow@gmail.com

Tuning: Standard

The intro and verses are the same however on the second verse 
play the single note on the E then single strum.

Intro/Bridge:

e|--------------------------------------------------------------|
B|--------------------------------------------------------------|
G|--------------------------------------------------------------|
D|---------12-12--------12-12-------12-12----12-12--------------|
A|---------12-12--------12-12-------12-12----12-12--------------| 
E|---10-10-10-10--10-10-10-10---9-9-9--9-9-9-9--9---------------| 
  
e|--------------------------------------------------------------|
B|--------------------------------------------------------------|
G|--------------------------------------------------------------|
D|-------9-9-----9-9-----7-7-----7-7----------------------------|
A|-------9-9-----9-9-----7-7-----7-7----------------------------| 
E|---7-7-7-7-7-7-7-7-5-5-5-5-5-5-5-5----------------------------| Repeat x2

Verse:
e|--------------------------------------------------------------|
B|--------------------------------------------------------------|
G|--------------------------------------------------------------|
D|---------12-12--------12-12-------12-12-------12-12-----------|
A|---------12-12--------12-12-------12-12-------12-12-----------| 
E|---10-10-10-10--10-10-10-10-10-10-10-10-10-10-10-10-----------| 
  
e|--------------------------------------------------------------|
B|--------------------------------------------------------------|
G|--------------------------------------------------------------|
D|-------9-9-----9-9-----7-7-----7-7----------------------------|
A|-------9-9-----9-9-----7-7-----7-7----------------------------| 
E|---7-7-7-7-7-7-7-7-5-5-5-5-5-5-5-5----------------------------| Repeat x4

Chorus:

e|---------------------------------------------------------------------------|
B|---------------------------------------------------------------------------|
G|---------------------------------------------------------------------------|
D|-------5-5-----5-5-----5-5-----5-5-----5-5-----5-5-----5-5-----5-5---------|
A|-------5-5-----5-5-----5-5-----5-5-----5-5-----5-5-----5-5-----5-5---------|
E|---3-3-3-3-3-3-3-3-3-3-3-3-3-3-3-3-0-0-0-0-0-0-0-0-2-2-2-2-2-2-2-2---------| Repeat x4

Lyrics:
I said my hands are heavy and my breathing's getting loud
You are the best thing, darling, this side of town
Let's take a walk outside let me borrow your lighter and share a cigarette
I've had far too much wine, let's make tonight a night we won't forget

I wanna be, I wanna be, I wanna be your Noah, I'm gonna be, I'm gonna be, I'm gonna be I just know it
I wanna be, I wanna be, I wanna be your Noah, I'm gonna be, I'm gonna be, I'm gonna be I just know it

I know you're freezing girl, I know you feel homesick
But I'll kiss your body just to make you get over it
This place is closing, yeah we drunk the pumps dry
Stay with me tonight, stay with me tonight
I know you're freezing girl, I know you feel homesick
But I'll kiss your body just to make you get over it
This place is closing, yeah we drunk the pumps dry
Stay with me tonight, stay with me tonight

I wanna be, I wanna be, I wanna be your Noah, I'm gonna be, I'm gonna be, I'm gonna be I just know it
I wanna be, I wanna be, I wanna be your Noah, I'm gonna be, I'm gonna be, I'm gonna be I just know it

Song Structure -
Intro
Verse 1
Chorus 1
Bridge
Verse 2
Chorus 2

Добавлено: 26.03.2016
Другие материалы по этой песне:
  • Аккорды и текст

Страница создана 26.03.2016
http://primanota.ru/moose-blood/girl-chords.htm
Привет, Гость.
Предлагаем пройти революционный курс по гитаре.
Подарок от PrimaNota.Ru, забирай!