PrimaNota.ru - самый крупный в мире бесплатный архив песенных текстов, аккордов, табулатур и нот


Moonspell - Serpent Angel - текст песни, бас-таба, видео

Регистрация Запомнить меня
Войти через:  Facebook Google Twitter Vk Yandex Mail.ru

Moonspell - Serpent Angel - текст песни, бас-таба, видео

Печатать
Просмотров: 110
ARTIST:MOONSPELL/MORBID GOD
MUSIC:SERPENT ANGEL (UNDER SATANAE,2007 UNIVERSAL TRACK 10 07:13)
BASS PLAYER:AIRES PEREIRA
BASS TAB:ANTÓNIO NARCISO (PT) EMAIL:GOTHBASS31@VAMPIREFREAKS.COM

RIFF 1
E-0-0-0-0-0-0-|
A-------------|
D-------------|
G-------------|

RIFF 2
E-----------------|
A-7-7-8-8-7-7-6-6-|
D-----------------|
G-----------------|

RIFF 3
E-0-0-0-0-0-0-3-4-3-3-0-0-0-0-0-0-3-4-3-3------|
A------------------------------------------3-2-|
D----------------------------------------------|
G----------------------------------------------|

RIFF 4
E-0-0-0-0-1-1-|
A-------------|
D-------------|
G-------------|

RIFF 5
E-------------|
A-10--9--8--7-|
D-------------|
G-------------|

RIFF 6
E-------------------------------------|
A-10-10-10-10-9-9-9-9-8-8-8-8-7-7-7-7-|
D-------------------------------------|
G-------------------------------------|

RIFF 7
E-------------------------------|
A-10-10-10-10-9-9-9-9-8-8-8-8-7-|
D-------------------------------|
G-------------------------------|

RIFF 8
E----------|
A-10-9-8-7-|
D----------|
G----------|

RIFF 9
E-5-5-5-5-5-5-5-5-5-5-4-4-4-4-4-4-4-4-4-4-3-3-3-3-3-3-3-3-3-3-2-2-2-2-2-2-2-2-2-2-|
A---------------------------------------------------------------------------------|
D---------------------------------------------------------------------------------|
G---------------------------------------------------------------------------------|

RIFF 10
E-0--1-1-|
A--------|
D--------|
G--------|

RIFF 11
E-5-5-6-6-5-5-4-4-|
A-----------------|
D-----------------|
G-----------------|

STRUCTURE:
RIFF 1 2X (00:02)
RIFF 2 8X (00:06)
RIFF 3 4X (00:30)
RIFF 4 8X (00:54)
RIFF 5 4X (01:30)
RIFF 6 5X (01:58)
RIFF 7 1X (02:27)
RIFF 1 4X (02:54)
RIFF 8 1X (03:07)
RIFF 1 4X (03:10)
RIFF 8 1X (03:23)
RIFF 9 2X (03:38)
RIFF 10 8X(04:05)
RIFF 6 4X (04:41)
RIFF 7 1X (05:02)
RIFF 6 5X (05:08)
RIFF 7 1X (05:39)
RIFF 1110X(05:53)
Добавлено: 21.06.2012
Другие материалы по этой песне:

Страница создана 10.03.2012
http://primanota.ru/moonspell/serpent-angel-chords.htm
Привет, Гость.
Предлагаем пройти революционный курс по гитаре.
Подарок от PrimaNota.Ru, забирай!