PrimaNota.ru - самый крупный в мире бесплатный архив песенных текстов, аккордов, табулатур и нот


Moonspell - Tenebrarum Oratorium - бас-таба, видео

Регистрация Запомнить меня
Войти через:  Facebook Google Twitter Vk Yandex Mail.ru

Moonspell - Tenebrarum Oratorium - бас-таба, видео

Печатать
Просмотров: 105
oequinoctium)
ALBUM: UNDER THE MOONSPELL (Track nº2, 7' 25'', 1994 Adipocere Records)Music: MOONSPELL
LANGSUYAR Tenebrarum Rex (Fernando Ribeiro)
BASS PLAYER: ARES (now singer on Deepskin)
BASS TABLATURE: NARCISO (PT) (GOTHBASS31@VAMPIREFREAKS.COM)
Riff I
G|----------------------------------|
D|----------------------------------|
A|-----------------3-3-3-3-3-3-3-3--|
E|-0-0-0-0-0-0-0-0------------------|

Riff II
G|--------------------------------------------------|
D|--------------------------------------------------|
A|-----------------3-3-3-3-3-3-3-3------------------|
E|-0-0-0-0-0-0-0-0-----------------0-0-0-0-0-0-0-0--|

Riff III
G|----------------------------------|
D|----------------------------------|
A|-6-6-6-6-6-6-6-6------------------|
E|-----------------3-3-3-3-3-3-3-3--|

Riff IV
G|----------------------------------------|
D|----------------------------------------|
A|---------------------------------5-3-5--|
E|-0-0-0-0-0-0-0-0-1-1-1-1-3-3-3-3--------|

Riff V
G|----|
D|----|
A|----|
E|-0--|

Riff VI
G|-----|
D|-----|
A|-/7--|
E|-----|

Riff Vii
G|--------------------|
D|--------------------|
A|--------------------|
E|-0-0-0-0-0-0-0-0-1--|

Riff Viii
G|------------------------------|
D|------------------------------|
A|-----------------------3-2-3--|
E|-0-0-0-0-0-0-0-0-3-0-3--------|

Riff ix
G|------------------|
D|------------------|
A|------------------|
E|-0-0-0-0-0-0-0-0--|

Riff x
G|------------------------------|
D|-----------------------3-2-3--|
A|-----------------2-3-5--------|
E|-0-0-0-0-0-0-0-0--------------|

Riff xi
G|-----------------5-7--|
D|----------------------|
A|----------------------|
E|-0-0-0-0-0-0-0-0------|

Riff xii
G|------------------------|
D|------------------------|
A|---------------------3--|
E|-0-0-0-0-0-0-0-0-2-3----|

Riff xiii (bass solo)
G|--------------------------------------------------------------------------|
D|-5-7-5-7-9----5-7-9-7-5-7-5-4-2----5-7-9-10-9----5-7-9-10-10-12-10-9-7----|
A|--------------------------------------------------------------------------|
E|--------------------------------------------------------------------------|

Structure:
Riff I  (3x) (0:46)
RIFF II (1X) (0:54)
Riff III(4x) (1:00)
Riff IV (6x) (1:09)
Riff I  (3x) (1:30)
Riff II (1x) (1:36)
RIFF III(4x) (1:40)
RIFF IV (6x) (1:54)
Riff v  (1x) (2:15)
Riff vi (1x) (2:17)
Riff vii(1x) (2:19)
Riff vi (1x) (2:24)
Riff vii(1x) (2:25)
Riff viii(1x)(2:27)
Riff vii (1x)(2:31)
Riff ix  (1x) (2:34)
Riff vi  (1x) (2:36)
Riff vii (1x) (2:37)
Riff ix  (1x) (2:40)
Riff x   (1x) (2:43)
Riff vii (1x) (2:45)
Riff viii(1x) (2:51)
Riff vii (1x) (2:54)
Riff ix  (1x) (2:57)
Riff vi  (1x) (2:58)
Riff vii (1x) (2:59)
Riff viii(1x) (3:01)
Riff vi  (1x) (3:04)
Riff ix  (1x) (3:07)
Riff vii (1x) (3:10)
Riff ix  (1x) (3:12)
Riff vii (1x) (3:16)
Riff viii(1x) (3:19)
Riff vii (1x) (3:22)
Riff viii(1x) (3:25)
Riff vii (1x) (3:29)
Riff viii(1x) (3:32)
Riff vii (2x) (3:45)
Riff xi  (1x) (3:50)
Riff xii (1x) (3:54)
Riff xii (1x) (3:56)
Riff xii (1x) (4:00)
Riff xi  (1x) (4:03)
Riff xii (1x) (4:06)
Riff xii (1x) (4:09)
Riff xii (1x) (4:12)
Riff xi  (1x) (4:16)
Riff xiii(1x) (4:18)
Добавлено: 01.03.2012
Другие материалы по этой песне:

Страница создана 01.03.2012
http://primanota.ru/moonspell/tenebrarum-oratorium-chords.htm
Привет, Гость.
Предлагаем пройти революционный курс по гитаре.
Подарок от PrimaNota.Ru, забирай!