PrimaNota.ru - самый крупный в мире бесплатный архив песенных текстов, аккордов, табулатур и нот


Moonspell - Opus Diabolicum - текст песни, бас-таба, видео

Регистрация Запомнить меня
Войти через:  Facebook Google Twitter Vk Yandex Mail.ru

Moonspell - Opus Diabolicum - текст песни, бас-таба, видео

Печатать
Просмотров: 198
RIFF I
G|-------------------------------------------------|
D|-------------------------------------------------|
A|-------------------------------------------3-2---|
E|-0-0-0-0-0-0-0-0-0-0-0-3-3-3—3-3-5-5-5-5-5-----3-|

RIFF II
G|---------------------------------|
D|---------------------------------|
A|-2-2-2-2-2-2-2-3-2-2-2-2-2-------|
E|---------------------------5-3-5-|

RIFF III
G|----------------------------|
D|----------------------------|
A|-2-2-2-2-2-2-2-3-2----------|
E|----------------------5-3-2-|

RIFF IV
G|------------------------------|
D|------------------------------|
A|-2-2-2-2-2-2-2-3-2------------|
E|----------------------5-3-2-0-|

RIFF V
G|----------------------------------------------|
D|-----------------9-10-10-10-10-9-9-9----------|
A|-7-7-7-7-9-10-10---------------------10-9-9-7-|
E|----------------------------------------------|

STRUCTURE:
RIFF 1   (4X)  (00:53)
RIFF II  (1X)  (01:14)
RIFF III (1X)  (00:20)
RIFF I   (4X)  (00:25)
RIFF II  (1X)  (00:46)
RIFF IV  (1X)  (00:51)
RIFF V   (10X) (02:00)
RIFF I   (4X)  (03:04)
RIFF II  (1X)  (03:25)
RIFF III (1X)  (03:30)
RIFF I   (4X)  (03:35)
RIFF II  (1X)  (03:55)
RIFF IV  (1X)  (04:00)
Добавлено: 22.02.2012
Другие материалы по этой песне:
  • Аккорды и текст

Страница создана 22.02.2012
http://primanota.ru/moonspell/opus-diabolicum-chords.htm
Привет, Гость.
Предлагаем пройти революционный курс по гитаре.
Подарок от PrimaNota.Ru, забирай!