PrimaNota.ru - самый крупный в мире бесплатный архив песенных текстов, аккордов, табулатур и нот


Moonspell - Shadow Sun - текст песни, бас-таба, видео

Регистрация Запомнить меня
Войти через:  Facebook Google Twitter Vk Yandex Mail.ru

Moonspell - Shadow Sun - текст песни, бас-таба, видео

Печатать
Просмотров: 187
Уроки эстрадного вокала в Санкт-Петербурге
ARTIST:MOONSPELL
MUSIC:SHADOW SUN (NIGHT ETERNAL,2008 UNIVERSAL TRACK 3 04:22)
BASS PLAYER:NICLAS ETELAVUORI/AIRES PEREIRA
BASS TAB:ANTÓNIO NARCISO (PT) EMAIL:GOTHBASS31@VAMPIREFREAKS.COM

Riff 1
E---------------------------------------------|
A-5-5-3-5---5------3-5---5------3-5---5-------|
D-----------3---4-4------3---3-3------3---6-6-|
G---------------------------------------------|

Riff 2
E-----------4-4-4-4-1-1-----------2-2-2-2-|
A-5-3-5-5----------------5-3-5-5----------|
D-----------------------------------------|
G-----------------------------------------|
Добавлено: 25.05.2012
Другие материалы по этой песне:

Страница создана 25.05.2012
http://primanota.ru/moonspell/shadow-sun-chords.htm
Привет, Гость.
Предлагаем пройти революционный курс по гитаре.
Подарок от PrimaNota.Ru, забирай!