PrimaNota.ru - самый крупный в мире бесплатный архив песенных текстов, аккордов, табулатур и нот


Mono - Pure As Snow - таба, видео

Регистрация Запомнить меня
Войти через:  Facebook Google Twitter Vk Yandex Mail.ru

Mono - Pure As Snow - таба, видео

Печатать
Просмотров: 140
-----------------------------------------------------------------------------
                             PURE AS SNOW - Mono
-----------------------------------------------------------------------------

Tuning: E A D G# B E




      E  E  E  E  E  E  E  E     E  E  E  E  E  E  E  E   
E ||--------------------------|--------------------------|
B ||--------------------------|--------------------------|
G#||--------------0-----------|--0-----------0-----------|
D ||--------2-----------2-----|--------2-----------2-----|
A ||-----4-----4-----4-----4--|-----4-----4-----4-----4--|
E ||--5-----------------------|--------------------------|


  E  E  E  E  E  E  E  E     E  E  E  E  E  E  E  E   
--------------------------|--------------------------|
--------------------------|--------------------------|
--------0-----------0-----|--------0-----------0-----|
--4-----------2-----------|--2-----------2-----------|
-----4-----4-----4-----4--|-----4-----4-----4-----4--|
--------------------------|--------------------------|


  E  E  E  E  E  E  E  E     E  E  E  E  E  E  E   E   
--------------------------|---------------------------|
--------------2-----------|--2-----------2------------|
--------3-----------3-----|--------3------------------|
-----4-----4-----4-----4--|-----4-----4-----4---------|
--5-----------------------|--------------------5p--4--|
--------------------------|---------------------------|


                                         ^                                 
  E  E  E  E  E  E  E  E     E  E  E  E  E   E   Q       W                 
--------------------------|--------------0-------L----|--L----------------|
--------------------------|--------------0-------L----|--L----------------|
--------0-----------0-----|--------------0h--1p--0----|--L----------------|
--4-----------4-----------|--------2-----2-------L----|--L----------------|
-----4-----4-----4-----4--|-----2-----2--2-------L----|--L----------------|
--------------------------|--0-----------0-------L----|--L----------------|


  >                                      >     >      
  E  E  E  E  E  E  E  E     E  E  E  E  E  E  E  E   
--------------------------|--------------------------|
--------------------------|--------------------------|
--------------0-----------|--0-----------------0-----|
--2-----2-----------2-----|--------2-----4-----------|
-----4-----4-----4-----4--|-----4-----4-----4-----4--|
--5-----------------------|--------------5-----------|


  >           >                          >        >   
  E  E  E  E  E  E  E  E     E  E  E  E  E  E  E  E   
--------------------------|--------------------------|
--------------------------|--------------0--------2--|
--0-----------1-----------|--------------------------|
--------0-----------0-----|--------0-----------0-----|
-----4-----4-----4-----4--|-----4-----4-----4--------|
--2-----------------------|--2-----------2-----------|


  >           >              >           >     >      
  E  E  E  E  E  E  E  E     E  E  E  E  E  E  E  E   
--------------------------|--------------------------|
--2-----------3-----------|--------------2-----0-----|
--------3-----------0-----|--0-----0-----------------|
-----4-----4-----4-----4--|-----4-----4-----4-----4--|
--5-----------------------|--5-----------------------|
--------------------------|--------------------------|


  >                                    ^           >                        
  E  E  E  E  E  E  E  E     Q    Q    H           E  E  E  E  E  E  E  E   
--------------------------|------------0--------|--------------------------|
--------------------------|------------0--------|--------------------------|
--------------0-----------|------------0--------|--------------0-----------|
--2-----2-----------2-----|------------2--------|--2-----2-----------2-----|
-----4-----4-----4-----4--|-------2-------------|-----4-----4-----4-----4--|
--5-----------------------|--0------------------|--5-----------------------|


              >     >        >           >            
  E  E  E  E  E  E  E  E     E  E  E  E  E  E  E  E   
--------------------------|--------------------------|
--------------------------|--------------------------|
--------------------0-----|--0-----------1-----------|
--------2-----4-----------|--------0-----------0-----|
-----4-----4-----4-----4--|-----4-----4-----4-----4--|
--5-----------5-----------|--2-----------2-----------|


              >        >     >           >              >           >           
  E  E  E  E  E  E  E  E     E  E  E  E  E  E  E  E     E  E  E  E  E  E  Q     
--------------------------|--------------------------|--------------------0----|
--------------0--------2--|--2-----------3-----------|--------------2----------|
--------------------------|--------3-----------0-----|--0-----0----------------|
--------0-----------0-----|-----4-----4-----4-----4--|-----4-----4-----4-------|
-----4-----4-----4--------|--5-----------------------|--5----------------------|
--2-----------2-----------|--------------------------|-------------------------|


  >                                   ^               >                        
  E  E  E  E  E  E  E  E     H        E   E   Q       E  E  E  E  E  E  E  E   
-----------------------0--|-----------0-------L----|--------------------------|
--------------------------|-----------0-------L----|--------------0-----------|
--------------0-----------|--0--------0h--1p--0----|--8-----8-----------8-----|
--2-----2-----------2-----|-----------2-------L----|-----7-----7-----7-----7--|
-----4-----4-----4--------|-----------2-------L----|--0-----------------------|
--5-----------------------|--0--------0-------L----|--------------------------|


  E  E  E  E  E  E  E  E     E  E  E  E   E  E  E  E   
--------------------------|---------------------------|
--------------7-----9-----|--9-----------10-----------|
--------8-----------8-----|--------0------------0-----|
-----7-----7-----7-----7--|-----7-----7------7-----7--|
--0-----------0-----------|--9------------------------|
--------------------------|---------------------------|


  E  E  E  E   E  E  E  E     E  E  E  E   E  E  E  E   
---------------------7-----|--9-----------10-----------|
--------------10-----------|--------7------------------|
--------0---------0-----0--|-----6-----6---------0-----|
-----7-----7---------------|--0---------------0-----0--|
--9------------9-----------|---------------------------|
---------------------------|---------------------------|


                                                                     ^         
   E  E  E  E   E  E  E  E     E  E  E  E  E  E  E  E     Q    E  E  H         
----------------------------|--------------------------|-------------0--------|
---------------10-----9-----|--9-----------0-----------|-------------0--------|
---0-----0------------------|--------8-----------8-----|-------------0--------|
------0-----0------0-----0--|-----7-----7-----7-----7--|----------6--6--------|
----------------------------|--0-----------------------|-------7-----7--------|
--10------------------------|--------------------------|--0----------0--------|


  >                                                    
  E  E  E  E  E  E  E  S S    E  E  E  E  E  E  E  E   
-----------------------0---|--------------------------|
--------------0----------0-|--------------7-----9-----|
--8-----8-----------8------|--8-----8-----------8-----|
-----7-----7-----7---------|-----------7-----7-----7--|
--0--------------------0---|-----0--------0-----------|
---------------------------|--------------------------|


  E  E  E  E   E  E  E  E     E  E  E  E   E  E  E  E   
---------------------------|---------------------7-----|
--9-----------10-----------|--------------10-----------|
--------0------------0-----|--------0---------0-----0--|
-----7-----7------7-----7--|-----7-----7---------------|
--9------------------------|--9------------9-----------|
---------------------------|---------------------------|


  E  E  E  E   E  E  E  E      E  E  E  E   E  E    Q     
--9-----------10-----------|-----------------------------|
--------7------------------|---------------10-----/12----|
-----6-----6---------0-----|---0-----0---------0---------|
--0---------------0-----0--|------0-----0----------------|
---------------------------|-----------------------------|
---------------------------|--10-------------------------|


  >                                                   
  E  E  E  E  E  E  E  E     E  E  E  E  E  E  E  E   
--------------------------|--------------------------|
--------------0-----------|--------------0-----------|
--8-----8-----------8-----|--------0-----------0-----|
-----7-----7-----7-----7--|-----6-----6-----6-----6--|
--0-----------------------|--------------------------|
--------------------------|--0-----------------------|


   E  E   E  E  E  E   E  E      E  E   E  E  E  E   E  E   
-----------------------------|-----------------------------|
----------------9-----10-----|----------------9-----10-----|
--10-----10-----------10-----|--10-----10-----------10-----|
------0------0-----0------0--|------0------0-----0------0--|
-----------------------------|-----------------------------|
--10-------------------------|--10-------------------------|


  E  E  E  E  E  E  E  E     E  E  E  E  E  E  E  E   
--------------------------|--------------------------|
--------------7-----9-----|--------------7-----9-----|
--8-----8-----8-----8-----|--8-----8-----8-----8-----|
-----7-----7-----7-----7--|-----7-----7-----7-----7--|
--------------------------|--------------------------|
--0-----------0-----------|--0-----------0-----------|


  E  E  E  E   E  E  E  E     E  E  E  E   E  E  E  E   
--------0------------7-----|--------0------------7-----|
--9-----9-----10-----0-----|--9-----9-----10-----0-----|
-----8-----8------8-----8--|-----8-----8------8-----8--|
---------------------------|---------------------------|
--0------------0-----------|--0------------0-----------|
---------------------------|---------------------------|


  E  E  E  E  E  E  E  E      E  E   E  E  E  E  E  E   
--9-----9-----7-----7-----|----------0-----0-----0-----|
--------0-----0-----0-----|--10-----10-----9-----9-----|
-----0-----0-----0-----0--|------8------8-----8-----8--|
--------------------------|----------------------------|
--------------------------|----------------------------|
--0-----------0-----------|---0------------0-----------|


   E  E   E  E   E  E   E  E      E  E   E  E  E  E   E  E   
------------------------------|-----------------------------|
-----------------9------------|----------------9-----10-----|
--10-----10-----10-----10-----|--10-----10-----------10-----|
------0------0------0------0--|------0------0-----0------0--|
------------------------------|-----------------------------|
--10--------------------------|--10-------------------------|


                                                ^       NH    
  E   E  E   E   E   E   E  E      E  E   E  E  Q       Q     
---------0---------------0-----|--10-----10-----9------------|
--9------9------10------12-----|---0------0-----0----<>12----|
-----10-----10------10------0--|------0------0--0----<>12----|
-------------------------------|-----------------------------|
-------------------------------|-----------------------------|
--0--------------0-------------|---0------------0------------|


  >                                                    
  E  E  E  E  E  E  E  S S    E  E  E  E  E  E  E  E   
---------------------------|--------------------------|
--------------0------------|--------------7-----9-----|
--8-----8-----------8------|--------8-----------8-----|
-----7-----7-----7---------|-----7-----7-----7-----7--|
--0--------------------0-0-|--0-----------0-----------|
---------------------------|--------------------------|


  E  E  E  E   E  E  E  E     E  E  E  E   E  E  E  E   
---------------------------|---------------------7-----|
--9-----------10-----------|--------------10-----------|
--------0------------0-----|--------0---------0-----0--|
-----7-----7------7--------|-----7-----7---------------|
--9---------------------9--|--9------------9-----------|
---------------------------|---------------------------|


  E  E  E  E   E  E  E  E      E  E  E  E   E  E  E  E   
--9-----------10-----------|----------------------------|
--------7------------------|---------------10-----9-----|
-----6-----6---------0-----|---0-----0------------------|
--0---------------0-----0--|------0-----0------0-----0--|
---------------------------|----------------------------|
---------------------------|--10------------------------|


                                    ^                                   
  E  E  E  E  E  E  E  E     Q.     E   E   Q.        W                 
--------------------------|---------0-------L------|--L----------------|
--9-----------0-----------|---------0-------L------|--L----------------|
--------8-----------8-----|---------0h--1p--0------|--L----------------|
-----7-----7-----7--------|---------2-------L------|--L----------------|
--0-----------------------|---------2-------L------|--L----------------|
-----------------------0--|--0------0-------L------|--L----------------|


     NH                 
     W                  
--<>12----------------||
----------------------||
----------------------||
----------------------||
----------------------||
----------------------||

Добавлено: 25.07.2012
Другие материалы по этой песне:
  • Аккорды и текст

Страница создана 25.07.2012
http://primanota.ru/mono/pure-as-snow-chords.htm
Привет, Гость.
Предлагаем пройти революционный курс по гитаре.
Подарок от PrimaNota.Ru, забирай!