PrimaNota.ru - самый крупный в мире бесплатный архив песенных текстов, аккордов, табулатур и нот


Mono - 2 Candles 1 Wish - таба, видео

Регистрация Запомнить меня
Войти через:  Facebook Google Twitter Vk Yandex Mail.ru

Mono - 2 Candles 1 Wish - таба, видео

Печатать
Просмотров: 42
This is an absolutely beautiful song from Mono
The guitar is split up into two sections
With the last 30 seconds of the song having some picked chords

e|---------------------------------------------------------------------------|
B|----------12---13-10--------12--13-15-10-----------------------------------|
G|-11-12-14-------------12-14------------------------------------------------|
D|---------------------------------------------------------------------------|
A|---------------------------------------------------------------------------|
E|---------------------------------------------------------------------------| x2


(Played along with Piano)

e|---------------------------------------------------------------------------|
B|--15-13-11----11-13-15-18-17-13-15-------------------------------------------|
G|-------(15)-----------(15)--(14)---------------------------------------------|
D|-------(15)-----------(15)--(14)---------------------------------------------|
A|---------------------------------------------------------------------------|
E|---------------------------------------------------------------------------| x4

Repeat these two guitar sections
On the second time, a second guitar plays chords underneath
All chords on second run i have put in brackets

e|---------------------------------------------------------------------------|
B|-10-----9^-----------------------------------------------------------------|
G|-----12----12--------------------------------------------------------------|
D|---------------------------------------------------------------------------|
A|---------------------------------------------------------------------------|
E|---------------------------------------------------------------------------|


************************************

| /   slide up
| \   slide down
| h   hammer-on
| p   pull-off
| ~   vibrato
| +   harmonic
| x   Mute note
| b   Bend
| pb  Pre-bend
| br  Bend release
| pbr Pre-bend release
| brb Bend release bend

************************************
Добавлено: 29.12.2015
Вам также может быть интересно:
Другие материалы по этой песне:
  • Аккорды и текст

Страница создана 29.12.2015
http://primanota.ru/mono/2-candles-1-wish-chords.htm
Привет, Гость.
Предлагаем пройти революционный курс по гитаре.
Подарок от PrimaNota.Ru, забирай!