PrimaNota.ru - самый крупный в мире бесплатный архив песенных текстов, аккордов, табулатур и нот


Monk Thelonious - Well You Neednt - таба, видео

Регистрация Запомнить меня
Войти через:  Facebook Google Twitter Vk Yandex Mail.ru

Monk Thelonious - Well You Neednt - таба, видео

Печатать
Просмотров: 88
-------------------------------------------------------------------------------
                             WELL YOU NEEDNT - Theolonius Monk
-------------------------------------------------------------------------------
Tabbed by: Saitenstechen
E-mail: 1993lorenz@web.de

Another very old jazz standard. Very fun tune.
Listen to the song for the timing.

Tuning: EADGBe


      F7                Gb7           F7               Gb7       F7             Gb7
e|--------5--8----------11-----------------5--8--5-----6--------------5--8------11----|
B|------6-------10----------11-----------6---------6-----7----------6------10------11-|
G|--4-5------------10----------------4-5------------------------4-5-----------10------|
D|------------------------------------------------------------------------------------|
A|------------------------------------------------------------------------------------|
E|------------------------------------------------------------------------------------|

1.) F7
e|-------------------------------|
B|--------6------------6-------O-|
G|---4-5----5-----4-5----5-------| repeat from beginning then
D|-------------------------------|     go into 2.)
A|-----------------------------O-|
E|-------------------------------|

2.)
    F7                   G7                 Ab7
e|-----------------------------------------------------|
B|------6---------6---------8---------8---------9------|
G|--4-5---5---4-5---5---6-7---7---6-7---7---7-8---8----|
D|-----------------------------------------------------|
A|-----------------------------------------------------|
E|-----------------------------------------------------|

still 2.)
     A7         Bb7         B7         Bb7      A7       Ab7        Gm7        C7
e|-----------------------------------------------------------------------------------|
B|-------10--------11----------12---------11--------10-------9-----------------------|
G|--8-9-----9-9-10----10-10-11----11-9-10----10-8-9----9-7-8---8-------12------------|
D|---------------------------------------------------------------10-11----11-10------|
A|-----------------------------------------------------------------------------------|
E|-----------------------------------------------------------------------------------|

back to main theme:

      F7                Gb7           F7               Gb7       F7             Gb7
e|--------5--8----------11-----------------5--8--5-----6--------------5--8------11----|
B|------6-------10----------11-----------6---------6-----7----------6------10------11-|
G|--4-5------------10----------------4-5------------------------4-5-----------10------|
D|------------------------------------------------------------------------------------|
A|------------------------------------------------------------------------------------|
E|------------------------------------------------------------------------------------|

End
     F7           F7
e|-------------------------------|
B|--------6------------6---------|
G|---4-5----5-----4-5----5-------| 
D|-------------------------------|    
A|-------------------------------|
E|-------------------------------|
Добавлено: 16.06.2016
Другие материалы по этой песне:
  • Аккорды и текст

Страница создана 16.06.2016
http://primanota.ru/monk-thelonious/well-you-neednt-chords.htm
Привет, Гость.
Предлагаем пройти революционный курс по гитаре.
Подарок от PrimaNota.Ru, забирай!