PrimaNota.ru - самый крупный в мире бесплатный архив песенных текстов, аккордов, табулатур и нот


Mogwai - Like Herod - таба, видео

Регистрация Запомнить меня
Войти через:  Facebook Google Twitter Vk Yandex Mail.ru

Mogwai - Like Herod - таба, видео

Печатать
Просмотров: 154
Авторы музыки: Stuart Braithwaite, John Cummings, Martin Bulloch, Dominic Aitchison

Tuning: Standard

Correction on previous version

I was looking for a tab on this but couldn't see anything so here's a starter for ten, 
it out and put in some improvements.

It is a swirly song on E so try to get the picking right and get the big m*ff ready!

Part 1 (Clean with twang)
e|------------------------------------------------------------------------|
b|------------------------------------------------------------------------|
g|-------1----0h1----------1----0h1----------1----0h1----------1----0h1---|
d|----2-----------2-----2-----------2-----2-----------2-----2-----------2-|
a|------------------------------------------------------------------------|
E|-0-------0---------0-------0---------0-------0---------0-------0--------|


Part 2 (Clean with twang)

e|-------------------------------------------|
b|--------------------------------------0----|
g|-------3---1--------3----1--3---1---3---3-1|
d|----2----2-------2-----2------2---2--------|
a|-------------------------------------------|
E|-0------------0----------------------------|

e|------------0------------------------------|
b|------------0------------------------------|
g|-------0----0-------0-----------0----------|
d|----2----2--2-----2---2-----4-------4------|
a|-3----------3---3--------5-----------------|
E|-------------------------------------------|

Part 3 (loud very loud, big m*ff full stain)
e|-------------------------------------|
b|-------------------------------------|
g|----------15/---------------13/------|
d|-------------------------------------|
a|-------------------------------------|
E|-0-0-0-0---------0-0-0-0-------------|

Part 4 (keep sustain, get feed back)
e|-------------------------------------|
b|----------------------12-------------|
g|--15--13---15--13--15-----15--13-----|
d|-------------------------------------|
a|-------------------------------------|
E|-------------------------------------|

Have a go and post any corrections

===============================================================================
Добавлено: 06.05.2012
Другие материалы по этой песне:
  • Аккорды и текст

Страница создана 06.05.2012
http://primanota.ru/mogwai/like-herod-chords.htm
Привет, Гость.
Предлагаем пройти революционный курс по гитаре.
Подарок от PrimaNota.Ru, забирай!