PrimaNota.ru - самый крупный в мире бесплатный архив песенных текстов, аккордов, табулатур и нот


Modern Lovers - Government Center - аккорды и текст, таба, видео

Регистрация Запомнить меня
Войти через:  Facebook Google Twitter Vk Yandex Mail.ru

Modern Lovers - Government Center - аккорды и текст, таба, видео

Печатать
Просмотров: 124
Уроки эстрадного вокала в Санкт-Петербурге
Авторы: Jonathan Richman

Government Center
Modern Lovers
		   Author/Artist: Jonathan Richmond and the Modern Lovers
Title: Government Center
Album: The Modern Lovers
Transcribed by: Mitch Wylie
Email: carjammerman@aol.com

this is my own work

------------------------------------------------------------------------------
------------------------------------------------------------------------------
------------------------------------------------------------------------------
------------------------------------------------------------------------------
--00000000----------00000000--------------------------------------------------
-----------00000000----------00000000-----------------------------------------
  Intro                                                                       

------------------------------------------------------------------------------
---------7777777777-99999-77777-99999-77-99-----------------------------------
---66666-7777777777-99999-77777-99999-77-99-66666-----------------------------
---77777-7777777777-99999-77777-99999-77-99-77777-----------------------------
---77777-5555555555-77777-55555-77777-55-77-77777-----------------------------
---55555------------------------------------55555-----------------------------
   Verse                                                                      

------------------------------------------------------------------------------
--777-77-777-77777----------------77-7-777777-9--9xxxxxxxxxx------------------
--777-77-777-77777----------------77-7-777777-9--9xxxxxxxxxx------------------
--777-77-777-77777--77-7-7777777--77-7-777777-9-------------------------------
--555-55-555-55555--77-7-7777777--55-5-555555-7-------------------------------
--------------------55-5-5555555----------------------------------------------
   Interlude                                                                  

     
Добавлено: 29.06.2013
Другие материалы по этой песне:
  • Аккорды и текст

Страница создана 15.05.2012
http://primanota.ru/modern-lovers/government-center-chords.htm
Привет, Гость.
Предлагаем пройти революционный курс по гитаре.
Подарок от PrimaNota.Ru, забирай!