PrimaNota.ru - самый крупный в мире бесплатный архив песенных текстов, аккордов, табулатур и нот


Moby - My Love Will Never Die - текст песни, таба, видео

Регистрация Запомнить меня
Войти через:  Facebook Google Twitter Vk Yandex Mail.ru

Moby - My Love Will Never Die - текст песни, таба, видео

Печатать
Просмотров: 263
Уроки эстрадного вокала в Санкт-Петербурге
Song: My Love Will Never Die
Artist: Moby
Album: Animal Rights
Year: 1996
Tabber: beranger80@hotmail.com



Chords (0:04)

E F# D C D F#



Intro (0:14)

E



Riff (0:22)

e--15-15-----------------------------|------|
b------------------------------------|------|
g--------12-12-12-12-12-12-12-12-12--|--15--|
d------------------------------------|------|
a------------------------------------|------|
e------------------------------------|------|
                                   x8


Verse (0:41)

e-----------------|
b-----------------|
g--7-x-x-6-x-5-4--|
d--7-x-x-6-x-5-4--|
a--5-x-x-4-x-3-2--|
e-----------------|



Chorus (0:50)

e-----------------|
b-----------------|
g--9-x-x-9-x-9-9--|
d--9-x-x-9-x-9-9--|
a--7-x-x-7-x-7-7--|
e-----------------|



Verse (0:54)

e-----------------|
b-----------------|
g--7-x-x-6-x-5-4--|
d--7-x-x-6-x-5-4--|
a--5-x-x-4-x-3-2--|
e-----------------|



Chorus (1:04)

e-----------------|
b-----------------|
g--9-x-x-9-x-9-9--|
d--9-x-x-9-x-9-9--|
a--7-x-x-7-x-7-7--|
e-----------------|



Bridge (1:12)

e---------------------------------|
b---------------------------------|
g--13-13-13-13-13-13-13-14-14-14--|
d---------------------------------|
a---------------------------------|
e---------------------------------|



Verse (1:30)

e-----------------|
b-----------------|
g--7-x-x-6-x-5-4--|
d--7-x-x-6-x-5-4--|
a--5-x-x-4-x-3-2--|
e-----------------|



Chorus (1:40)

e-----------------|
b-----------------|
g--9-x-x-9-x-9-9--|
d--9-x-x-9-x-9-9--|
a--7-x-x-7-x-7-7--|
e-----------------|



Verse (1:44)

e-----------------|
b-----------------|
g--7-x-x-6-x-5-4--|
d--7-x-x-6-x-5-4--|
a--5-x-x-4-x-3-2--|
e-----------------|



Chorus (1:54)

e-----------------|
b-----------------|
g--9-x-x-9-x-9-9--|
d--9-x-x-9-x-9-9--|
a--7-x-x-7-x-7-7--|
e-----------------|



Bridge (2:03)

e---------------------------------|
b---------------------------------|
g--13-13-13-13-13-13-13-14-14-14--|
d---------------------------------|
a---------------------------------|
e---------------------------------|



Verse (2:16)

e-----------------|
b-----------------|
g--7-x-x-6-x-5-4--|
d--7-x-x-6-x-5-4--|
a--5-x-x-4-x-3-2--|
e-----------------|



Bridge (2:26)

e-----------------|
b-----------------|
g--7-x-x-6-x-5-4--|
d--7-x-x-6-x-5-4--|
a--5-x-x-4-x-3-2--|
e-----------------|



Chorus (2:34)

e-----------------|
b-----------------|
g--9-x-x-9-x-9-9--|
d--9-x-x-9-x-9-9--|
a--7-x-x-7-x-7-7--|
e-----------------|



Solo (2:53)

e-----------------------------|
b-----------------------------|
g-----------------------------|
d--14--14-12--12-11--11-9--9--|
a-----------------------------|
e-----------------------------|

e-----------------------------|
b-----------------------------|
g-----------------------------|
d--14--14-12--12-11--11-9--9--|
a-----------------------------|
e-----------------------------|



3:11
e-----------------|
b-----------------|
g-----------------|
d--14-16--12--14--|
a-----------------|
e-----------------|

e-----------------------|
b-----------------------|
g-----------------------|
d--14-16--12--11-12-14--|
a-----------------------|
e-----------------------|



3:29
e------------------------------------|
b------------------------------------|
g------------------------------------|
d--18--16-18--16-18--16-18----21-18--|
a------------------------------------|
e------------------------------------|

e---------------------------|
b---------------------------|
g---------------------------|
d--18--16-18--16-18--16-18--|
a---------------------------|
e---------------------------|



3:47
e------------------------------------------|
b------------------------------------------|
g--18-18--16-----18-18---16------18-18-16--|
d-------------19--------------19-----------|
a------------------------------------------|
e------------------------------------------|



4:01
e---------------------------------------|
b---------------------------------------|
g--18-18-18-18-18-18-18-18-18-18-18-18--|
d---------------------------------------|
a---------------------------------------|
e---------------------------------------|



4:06
e---------------------------------------|
b---------------------------------------|
g--19-19-19-19-19-19-19-19-19-19-19-19--|
d---------------------------------------|
a---------------------------------------|
e---------------------------------------|



4:12
e---------------------------------------|
b---------------------------------------|
g--21-21-21-21-21-21-21-21-21-21-21-21--|
d---------------------------------------|
a---------------------------------------|
e---------------------------------------|



4:29
e-------|
b-------|
g--21\--|
d-------|
a-------|
e-------|
Добавлено: 21.07.2015
Другие материалы по этой песне:
  • Аккорды и текст

Страница создана 25.12.2013
http://primanota.ru/moby/my-love-will-never-die-chords.htm
Привет, Гость.
Предлагаем пройти революционный курс по гитаре.
Подарок от PrimaNota.Ru, забирай!