PrimaNota.ru - самый крупный в мире бесплатный архив песенных текстов, аккордов, табулатур и нот


Moby - Love Theme - аккорды и текст, видео

Регистрация Запомнить меня
Войти через:  Facebook Google Twitter Vk Yandex Mail.ru

Moby - Love Theme - аккорды и текст, видео

Печатать
Просмотров: 95
Love Theme
Moby
e--------------------------------------------------------------------------
B-3/5--3/5-3/5-5--5-5\3-3-5\3-3-3\1-3\1-1------------------3/5-5--3-3/5-5--
G-----------------------------------------5-5\2-2-2-2/5-5------------------

e--------------------------------------------------------------------------
B-5-5-3-5-5/10-10-8/10-10-10-10-10-10-8/10-8/10-10/13-13-13\10--10-10-10-10
G--------------------------------------------------------------------------

e-10/12-12-10/12-12-12-12-12-12-15-15/17-17--10-10--10-12-12\8-8-8--8-8\5-5
B--------------------------------------------------------------------------
G--------------------------------------------------------------------------

e-5-3-5-5---5-5-3-3--------------------------------------------------------
B-------------------3/5-5-3/5-5---5-5\3-3--3/5-5\3-3-3-3-3-1/5-5-5\1-1-1/3-
G--------------------------------------------------------------------------

e--------------------------------------------------------------------------
B---------------3/5-5---5-3/5-5--5-5-3-5--3/10--10-10-10---8-8---13\10--10-
G-7\2-2-2-2-2-2------------------------------------------------------------

e---------------------------------------------------------------10/12-12---
B-10-10-8-10-10/13---13/15-15-15--15-15\13--10/13--15\13--10/13------------
G--------------------------------------------------------------------------

e-12-12--10-10/12--12-12-10/12---15-17-17----15/17-17/19-19-19--19-17-21-21
B--------------------------------------------------------------------------
G--------------------------------------------------------------------------

e-17\15-15/17-17---17-15-13--17-15-10---8-8/10-10\8-8\5-5-5/8-8------------
B---------------------------------------------------------------8\5--------
G--------------------------------------------------------------------------

e--------------------------------------------------------------------------
B-3-5\3-\1---------------3/5-5-\1---3/5-3-5-----8-10-8-5-3-\1---0-1---1/6-6
G-----------2/5-5-\2-------------------------------------------------------

e--------------------------------------------------------------------------
B-6-6/8-6-5----5/13-13-13----8/10-10\8-3/5-5-3-5--5-5\3-5/10-10-8-10-------
G--------------------------------------------------------------------------

e--------8-5-8-5---5-8----8/13-13--12--13-13\12-8---10/12-12-12\10-10\8----
B-8-10-10---------8--------------------------------------------------------
G--------------------------------------------------------------------------

e-------------------------------------------------3------------------------
B-8\5-5--8\5-3/5-5-8\5-3/5-5--10-8\5-3/5-3-----3/5---5\3-3/5-5\1-----------
G----------------------------------------------------------------2/5-5-5\2-

e--------------------------------------------------------------------------
B-------------------------------------10-8/10-10\8-8---8-8-8/10-10-8/10----
G-2-2-2-2-2/5-5/7-7/9-9-9\7-9---7-9-7--------------------------------------

e-------------------------10/12-12-15-15-15-15-15-15----15-19--15-19-------
B-10/13-13-13-13-13-13-----------------------------------------------------
G--------------------------------------------------------------------------

e-19-19---17/19-19\15-15---15-15-17-20-20---17-17---13-13--13-20-----------
B---------------------------------------------------------------17-17------
G--------------------------------------------------------------------------

e-20----------------------------12--------12---12-12\10---19---17-15--15/17
B----17-17\15-15/17-17\15-15\13-----15\13----------------------------------
G--------------------------------------------------------------------------

e-12/13-12-12/13-10---10/12-10/12-10--8-8/10-10--8-5\3--3-5-8--5-3---------
B--------------------------------------------------------------------------
G--------------------------------------------------------------------------

e--------------------------------------------------------------------------
B-3/5-5---8-3/5-3----------------------------------------------------------
G--------------------------------------------------------------------------
Добавлено: 30.01.2014
Другие материалы по этой песне:

Страница создана 19.04.2012
http://primanota.ru/moby/love-theme-chords.htm
Привет, Гость.
Предлагаем пройти революционный курс по гитаре.
Подарок от PrimaNota.Ru, забирай!