PrimaNota.ru - самый крупный в мире бесплатный архив песенных текстов, аккордов, табулатур и нот


Misc Your Songs - Kurbit - Firebird - таба

Регистрация Запомнить меня
Войти через:  Facebook Google Twitter Vk Yandex Mail.ru

Misc Your Songs - Kurbit - Firebird - таба

Печатать
Просмотров: 77
-------------------------------------------------------------------------------
                             kurbit - Firebird
-------------------------------------------------------------------------------
Tabbed by: kurbit

Chords are meant to be played on an acoustic and tab/picking on an overdriven or distorted electric.
The acoustic is meant to be a rhythm and should set the pace at which the lead player plays.

Its just scales but is fast, or should be.

 Am7 G  D  Am

e|0--3--2--0|                                 e|-3-|
B|1--0--3--1|                                 B|-3-| 
G|0--0--2--2|                                 G|-0-|
D|2--0--0--2| alternatively you can play G as D|-0-| to make the chord change faster
A|0--2--x--0|                                 A|-2-|
E|x--3--x--x|                                 E|-3-|

-or-

use power chords:

 Am7 G  D  Am
e|x--x--x--x|
B|x--x--x--x|
G|2--x--7--x|
D|2--5--7--7|
A|0--5--5--7|
E|x--3--x--5| 

Strumming pattern: DDDUDU -or- DDUUDU (once with each chord)

Tuning: Standard

   Am7             G                    D             Am  

e|------5-7h-8-7-5---------------------------------------------------|
B|-5-6h------------5-7h-/8-8-/10-10-8-7------------------------------|
G|--------------------------------------4-6h-/7-7-6-4------4-5h-/7-7-|
D|----------------------------------------------------5-7h-----------|
A|-------------------------------------------------------------------|
E|-------------------------------------------------------------------|

   Am7       G              D               Am  

e|-----------------------------------------------------------|
B|-----------------------------------------------------------|
G|-7-5p-4h-5----------------6-4p-----------------------------|
D|-----------7-4-5-7-4-5-7b------7-5p-4h-5h-5-7h-------------|
A|-----------------------------------------------5-7h-/8-8-5-|
E|-----------------------------------------------------------|

   Am7             G                       D                        Am  

e|---------------------------------------------------------------------------------|
B|---------------------------------------------------------------------------------|
G|---------------------------------------------------------------------------------|
D|---------------------------------------------------------------------------------|
A|-5-7h-8h---------------------3-5h-/7-5-3-9-10h-12h-12-10-9-5-7h-8----------------|
E|---------5-7h-8h-3-5h-/7-5-7--------------------------------------5-7h-8-7-5p-5h-|

   Am7       G              D                      Am  

e|-------------------------------------------------------------|
B|-------------------------------------------------------------|
G|-7-5p-4h-5----------------6-4p-------------------------------|
D|-----------7-4-5-7-4-5-7b------7-5p-4h-5h-7-5-7h-------------|
A|-------------------------------------------------5-7h-/8-8-5-|
E|-------------------------------------------------------------|


repeat forever


************************************

| /   slide up
| \   slide down
| h   hammer-on
| p   pull-off
| ~   vibrato
| +   harmonic
| x   Mute note
| b   Bend
| pb  Pre-bend
| br  Bend release
| pbr Pre-bend release
| brb Bend release bend

************************************
Добавлено: 26.10.2015
Другие материалы по этой песне:
  • Аккорды и текст

Страница создана 26.10.2015
http://primanota.ru/misc-your-songs/kurbit-firebird-chords.htm
Привет, Гость.
Предлагаем пройти революционный курс по гитаре.
Подарок от PrimaNota.Ru, забирай!