PrimaNota.ru - самый крупный в мире бесплатный архив песенных текстов, аккордов, табулатур и нот


Misc Your Songs - Chris Palmer - Untitled Song - бас-таба, видео

Регистрация Запомнить меня
Войти через:  Facebook Google Twitter Vk Yandex Mail.ru

Misc Your Songs - Chris Palmer - Untitled Song - бас-таба, видео

Печатать
Просмотров: 31
-------------------------------------------------------------------------------
                          As yet Unnamed - Similarly 
-------------------------------------------------------------------------------
Tabbed by: Chris Palmer
E-mail: chrispalmer7@btinternet.com

Tuning: STD


G|--------------------------------|--------------------------------|
D|--------------------------------|--------------------------------|
A|--------------------------------|--------------------------------|
E|--------------------------------|------------------------0---0---|

G|--------------------------------|--------------------------------|
D|--------------------------------|--------------------------------|
A|2-2-2-0-2-0-2-5---5-5-5-5-5-5-5-|2-2-2-0-2-0-2-0---0-0-0-0-0-0-0-|
E|--------------------------------|--------------------------------|

G|--------------------------------|--------------------------------|
D|--------------------------------|--------------------------------|
A|2-2-2-0-2-0-2-5---5-5-5-5-5-5-5-|2-2-2-0-2-0-2-0---0-0-0-0-0-0-0-|
E|--------------------------------|--------------------------------|

G|--------------------------------|--------------------------------|
D|------------------------5-------|--------------------------------|
A|2-2-2-0-2-0-2-5---5-5-7---7-5-0-|2-2-2-0-2-0-2-0---0-0-0-5-2-0---|
E|--------------------------------|--------------------------------|

G|--------------------------------|--------------------------------|
D|------------------------5-------|--------------------------------|
A|2-2-2-0-2-0-2-5---5-5-7---7-5-0-|2-2-2-0-2-0-2-0---0-0-0-0---1---|
E|--------------------------------|--------------------------------|
  
 DW if you can't do the slides - just play the notes normally if not
G|--------------------------------|--------------------------------|
D|--------------------------------|--------------------------------|
A|----------------2---2/14--------|5---5/17------------------------|
E|2---2/14------------------------|----------------1---1---0---0---|

G|--------------------------------|--------------------------------|
D|--------------------------------|--------------------------------|
A|----------------2---2/14--------|5---5/17------------------------|
E|2---2/14------------------------|----------------1---1---0---0---|

G|--------------------------------|--------------------------------|
D|------------------------5-------|--------------------------------|
A|2-2-2-0-2-0-2-5---5-5-7---7-5-0-|2-2-2-0-2-0-2-0---0-0-0-5-2-0---|
E|--------------------------------|--------------------------------|

G|--------------------------------|--------------------------------|
D|------------------------5-------|--------------------------------|
A|2-2-2-0-2-0-2-5---5-5-7---7-5-0-|2-2-2-0-2-0-2-0---0-0-0-0---1---|
E|--------------------------------|--------------------------------|

G|--------------------------------|--------------------------------|
D|------------------------5-------|--------------------------------|
A|2-2-2-0-2-0-2-5---5-5-7---7-5-0-|2-2-2-0-2-0-2-0---0-0-0-5-2-0---|
E|--------------------------------|--------------------------------|

G|--------------------------------|--------------------------------|
D|------------------------5-------|--------------------------------|
A|2-2-2-0-2-0-2-5---5-5-7---7-5-0-|2-2-2-0-2-0-2-0---0-0-0-0---1---|
E|--------------------------------|--------------------------------|

G|--------------------------------|--------------------------------|
D|--------------------------------|--------------------------------|
A|----------------2---2/14--------|5---5/17------------------------|
E|2---2/14------------------------|----------------1---1---0---0---|

G|--------------------------------|--------------------------------|
D|--------------------------------|--------------------------------|
A|----------------2---2/14--------|5---5/17------------------------|
E|2---2/14------------------------|----------------1---1---0---0---|

G|--------------------------------|--------------------------------|
D|------------------------5-------|--------------------------------|
A|2-2-2-0-2-0-2-5---5-5-7---7-5-0-|2-2-2-0-2-0-2-0---0-0-0-5-2-0---|
E|--------------------------------|--------------------------------|

G|--------------------------------|--------------------------------|
D|------------------------5-------|--------------------------------|
A|2-2-2-0-2-0-2-5---5-5-7---7-5-0-|2-2-2-0-2-0-2-0---0-0-0---0---0-|
E|--------------------------------|--------------------------------|

 Freestyle Finish - Mainly A and B
G|-----------------------------------------------------------------|
D|-----------------------------------------------------------------|
A|-----------------------------------------------------------------|
E|-----------------------------------------------------------------|




| /  slide up
| \  slide down
| h  hammer-on
| p  pull-off
| ~  vibrato
| +  harmonic
| x  Mute note
===============================================================================
Добавлено: 11.03.2016
Другие материалы по этой песне:
  • Аккорды и текст

Страница создана 11.03.2016
http://primanota.ru/misc-your-songs/chris-palmer-untitled-song-chords.htm
Привет, Гость.
Предлагаем пройти революционный курс по гитаре.
Подарок от PrimaNota.Ru, забирай!