PrimaNota.ru - самый крупный в мире бесплатный архив песенных текстов, аккордов, табулатур и нот


Misc Your Songs - Gershom Tiquia - The Longest Distance - аккорды и текст

Регистрация Запомнить меня
Войти через:  Facebook Google Twitter Vk Yandex Mail.ru

Misc Your Songs - Gershom Tiquia - The Longest Distance - аккорды и текст

Печатать
Просмотров: 114
Gershom Tiquia - The Longest Distance
Misc Your Songs
Capo 2

[Intro]
C Gsus Am7 F (x2)

    C                      Gsus                   Am7                      F
E|-------------------------3-----------------------------------------------1-----------------------|
A|--3---------------------------------------------0------------------------------------------------|
D|-------------------------------------------------------------------------------------------------|
G|----0-----------0----------0----------0-----------0---------0------------0---------0-------------|
B|--1----1-----------1-----1----1----------1------1----1---------1------------1---------1----------|
e|----------0----------0-----------0----------0-----------0---------0---1--------1---------1-------|


[Verse 1]
      C                    G
From Jupiter to Mars, it's really not that far
    Am                   G
Compared to what's in my heart
F                        C
Nothing can compare, but you don't really care
     F                        G
But listen to what I have to share


[Verse 2]
        C                G
From Toronto to Rome, Chicago to my home
  Am                  G
Sahara, to Antartica Snow
F                    C
Summer to the cold, sky high to ground low
      F                     G
It's more than you'll ever know


[Pre Chorus]
Am      Em     F       G
Days go by and I won't lie
Am     Em         F                 G
That I cry every time you cross my mind  


[Chorus]
     C                  Am
The longest distance to me
    G                     Em
Is when you stand next to me
     F                      C
But you'll never know, how much in here
     Am                 G
That you really mean to me
     C                  Am
The longest distance to me
    G                       Em
Is when you're right by my side
       F                        C
And I look in your eyes, but I can't convey
      Am                G
The feelings inside of me
      C
For you


[Interlude]
C Gsus Am7 F (x2)

    C                      Gsus                   Am7                      F
E|-------------------------3-----------------------------------------------1-----------------------|
A|--3---------------------------------------------0------------------------------------------------|
D|-------------------------------------------------------------------------------------------------|
G|----0-----------0----------0----------0-----------0---------0------------0---------0-------------|
B|--1----1-----------1-----1----1----------1------1----1---------1------------1---------1----------|
e|----------0----------0-----------0----------0-----------0---------0---1--------1---------1-------|


[Verse 2]
        C                G
From Toronto to Rome, Chicago to my home
  Am                  G
Sahara, to Antartica Snow
F                    C
Summer to the cold, sky high to ground low
      F                     G
It's more than you'll ever know


[Pre Chorus]
Am      Em     F       G
Days go by and I won't lie
Am     Em         F                 G
That I cry every time you cross my mind  


[Chorus]
     C                  Am
The longest distance to me
    G                     Em
Is when you stand next to me
     F                      C
But you'll never know, how much in here
     Am                 G
That you really mean to me
     C                  Am
The longest distance to me
    G                       Em
Is when you're right by my side
       F                        C
And I look in your eyes, but I can't convey
      Am                G
The feelings inside of me
      C
For you


[Bridge]
C Gsus Am7 F (x2)


[Pre Chorus]
Am      Em     F       G
Days go by and I won't lie
Am     Em         F                 G
That I cry every time you cross my mind  


[Chorus]
     C                  Am
The longest distance to me
    G                     Em
Is when you stand next to me
     F                      C
But you'll never know, how much in here
     Am                 G
That you really mean to me
     C                  Am
The longest distance to me
    G                       Em
Is when you're right by my side
       F                        C
And I look in your eyes, but I can't convey
      Am                G
The feelings inside of me
      C
For you

[Outro]
C Gsus Am7 F (x2)

    C                      Gsus                   Am7                      F
E|-------------------------3-----------------------------------------------1-----------------------|
A|--3---------------------------------------------0------------------------------------------------|
D|-------------------------------------------------------------------------------------------------|
G|----0-----------0----------0----------0-----------0---------0------------0---------0-------------|
B|--1----1-----------1-----1----1----------1------1----1---------1------------1---------1----------|
e|----------0----------0-----------0----------0-----------0---------0---1--------1---------1-------|

Добавлено: 18.06.2015
Другие материалы по этой песне:
  • Аккорды и текст

Страница создана 18.06.2015
http://primanota.ru/misc-your-songs/gershom-tiquia-longest-distance-chords.htm
Привет, Гость.
Предлагаем пройти революционный курс по гитаре.
Подарок от PrimaNota.Ru, забирай!