PrimaNota.ru - самый крупный в мире бесплатный архив песенных текстов, аккордов, табулатур и нот


Misc Your Songs - The Meaning Of Goodbye - таба, видео

Регистрация Запомнить меня
Войти через:  Facebook Google Twitter Vk Yandex Mail.ru

Misc Your Songs - The Meaning Of Goodbye - таба, видео

Печатать
Просмотров: 101
-------------------------------------------------------------------------------
                             The Meaning of Goodbye
-------------------------------------------------------------------------------
Tabbed by: Me
E-mail: jpm1@comcast.net

Tuning: Standard

INTRO play slowly e notes are slightly longer 
e|-------------------3---3s5s3------------------------------------------------|
B|------3-1---1-0------------------------------------------------------------|
G|-----0---0-----0--2---2----------------------------------------------------|
D|----2------2-----2---2-----------------------------------------------------|
A|---3------2-----0---0------------------------------------------------------|
E|---------------------------------------------------------------------------|

Verse
C Em Am 

 Bridge          Strumming:  D  D  D DU   Palm Mute if ya feel like it or strum more times
e|---------------------------------------------------------------------------|
B|---------------------------------------------------------------------------|
G|------------------------------------0h2-2-2-22---0-0h2-2-2-22--------------|
D|--2-2-2--22------2-2-2-2--22------2-0h2-2-2-22---0-0h2-2-2-22--------------|
A|--3-3-3--33------3-2-2-2--22------2----------------------------------------|
E|---------------------------------------------------------------------------|

 Chorus ( Definitely strum more than this)
e|------------------0-0-0-0--0-0-0-0-----------------------------------------|
B|------------------1-1-1-1--1-1-1-1----3-3-3-3-3-3-0------------------------|
G|-2-2-2--4-4-4-4---0-0-0-0--2-2-2-2----0-0-0-0-0-0-0------------------------|
D|-3-3-3--5-5-5-5---2-2-2-2--2-2-2-2----0-0-0-0-0-0-0------------------------|
A|-3-3-3--5-5-5-5---3-3-3-3--0-0-0-0----2-2-2-2-2-2-2------------------------|
E|-1-1-1--3-3-3-3---0-0-0-0--0-0-0-0----3-3-3-3-3-3-3------------------------|

Throw in some of these somewhere NVM
e|---------------------------------------------------------------------------|
B|---------------------------------------------------------------------------|
G|---------------------------------------------------------------------------|
D|---------------------------------------------------------------------------|
A|-2-2-----------------------------------------------------------------------|
E|-3-3-----------------------------------------------------------------------|

OUTRO ( sing "Goodbye")
e|-3-0-0-0-0-0-0-------------------------------------------------------------|
B|-3-3-0-0-0-0-1-------------------------------------------------------------|
G|-0-0-0-0-0-1-0-------------------------------------------------------------|
D|-0-0-0-0-2-2-2-------------------------------------------------------------|
A|-2-2-2-2-2-2-3-------------------------------------------------------------|
E|-3-3-3-0-0-0-0-------------------------------------------------------------|

Chorus
F           G
I am trying to
         C 
find the meaning of
     Am          G-thingy    lower G-thingy
good bye ooooohooooohoooohooooooh

yeyeaah yeah yea  


Verse Ideas
1  On this road, so far from home, what am I looking for?
   Walking alone, so far gone, what do I see?

2   I see you, on this road, but don't know what's going on?
   And I know, its not you, because you're gone

3  I'm singing a song, a song for you, but is it for me?\
   Singing along, feeling blue, I dont know where I'm going

INTRO
Pluck the verse chords(C Em Am Am Am Am Am Am)
VERSE 1
VERSE 2
Chorus
BRIDGE x2
VERSE 3
CHORUS
BRIDGE x2
OUTRO


************************************

| /   slide up
| \   slide down
| h   hammer-on
| p   pull-off
| ~   vibrato
| +   harmonic
| x   Mute note
| b   Bend
| pb  Pre-bend
| br  Bend release
| pbr Pre-bend release
| brb Bend release bend

************************************
Добавлено: 20.07.2015
Другие материалы по этой песне:
  • Аккорды и текст

Страница создана 20.07.2015
http://primanota.ru/misc-your-songs/meaning-of-goodbye-chords.htm
Привет, Гость.
Предлагаем пройти революционный курс по гитаре.
Подарок от PrimaNota.Ru, забирай!