PrimaNota.ru - самый крупный в мире бесплатный архив песенных текстов, аккордов, табулатур и нот


Misc Your Songs - Annie G - Eggbert - таба

Регистрация Запомнить меня
Войти через:  Facebook Google Twitter Vk Yandex Mail.ru

Misc Your Songs - Annie G - Eggbert - таба

Печатать
Просмотров: 51
                                    Eggbert       
                              
NOTE: Written as a composition project for a Basic 
Musicianship class. 

Guitar
     H        Q    Q       H        E  E  E  E     W                 
E||---------------------|-----------------------|-------------------|
B||---------------------|-----------------------|-------------------|
G||---------------------|-----------------------|-------------------|
D||---------------------|--------------6--7-----|--6----------------|
A||---------------------|--7--------9--------9--|-------------------|
E||----------------7----|-----------------------|-------------------|


  H        E  E  E  E     W                   Q    E  E  E  E  E  E   
-----------------------|-------------------|-------------------------|
-----------------------|-------------------|-------------------------|
-----------------------|-------------------|-------------------------|
--9-----------7--6-----|-------------------|-------------6-----6--7--|
-----------9--------7--|--9----------------|--7----7--9-----9--------|
-----------------------|-------------------|-------------------------|


  Q    E  E  H           E  E  E  E  E  E  E  E     H.           E  E   
----------------------|--------------------------|---------------------|
----------------------|--------------------------|---------------------|
-------9--6-----------|--------------------------|---------------------|
--9----------9--------|--6--7--9-----6-----------|---------------------|
----------------------|-----------9-----7--9-----|--7------------------|
----------------------|-----------------------7--|---------------7--4--|


  H        E  E  E  E     H.           E   E     Q     E  E  E   E  E   E   
-----------------------|----------------------|----------------------------|
-----------------------|----------------------|----------------------------|
-----------------------|----------------------|--9------------------9------|
--------------6--7--8--|--9------------9------|-------11--9--9---------11--|
--7--------9-----------|------------------11--|-----------------11---------|
-----------------------|----------------------|----------------------------|


               |---3---|                         |---3---|   
  H.           E   E   E     Q     E  E   E   E  E   E   E   
--------------------------|---------------------------------|
--------------------------|---------------------------------|
--------------------------|--9-------------------9----------|
--9------------9----------|-------11--9-------------13--11--|
------------------12--11--|--------------12--11-------------|
--------------------------|---------------------------------|


  E   E  E   E  E  E  E  E     E  E  E  E  E  E  E  E   
----------------------------|--------------------------|
----------------------------|--------------------------|
----------------------------|--------------------------|
--9-------------------------|--------6--9--6-----6-----|
-----11--9--11--7--------6--|--7--9-----------------9--|
-------------------7--9-----|-----------------7--------|


           |-----3----|                                
  H        Q    Q     Q       Q    E   E  Q    E   E   
---------------------------|--------------------------|
-----------9---------------|--9-----------9-----------|
----------------9----------|-------9--11-------9------|
--2------------------11----|----------------------11--|
--2------------------------|--------------------------|
--0------------------------|--------------------------|


           |---3--|            |-----3----|     |----3----|     
  H        E   E  E  E   E     Q     Q    Q     Q    Q    Q     
----------------------------|----------------------------------|
--9--------9--10--9---------|--9-------------------------------|
---------------------9------|-------11----9----11----9---------|
------------------------11--|-----------------------------9----|
----------------------------|----------------------------------|
----------------------------|----------------------------------|


                                   |----3----|     
  H        Q     Q        H        Q    Q    Q     
----------------------|---------------------------|
----------------------|---9-----------------------|
----------------------|------------9----8----9----|
--8--------9----10----|--11-----------------------|
----------------------|---------------------------|
----------------------|---------------------------|


            |-----3-----|                                                 
   H        Q     Q     Q       H        E  E  E  E     W                 
-----------------------------|-----------------------|-------------------|
---8-------------------------|-----------------------|-------------------|
------------9----------------|-----------------------|-------------------|
--11-------------11----------|--------------6--7--9--|--6----------------|
-----------------------11----|--7--------9-----------|-------------------|
-----------------------------|-----------------------|-------------------|


       |--3--|  |--3--|  |--3--|                       
  Q    E  E  E  E  E  E  E  E  E     W                 
----------------------------------|-------------------|
----------------------------------|-------------------|
--9----8--6-----6--------9--6-----|-------------------|
-------------9-----9--6--------7--|--9----------------|
----------------------------------|-------------------|
----------------------------------|-------------------|


       |--3--|  |--3--|  |--3--|     |--3--|  |--3--|  |--3-|  |--3-|   
  Q    E  E  E  E  E  E  E  E  E     E  E  E  E  E  E  Q    E  Q    E   
----------------------------------|------------------------------------|
----------------------------------|------------------------------------|
--9----8--6-----------------6-----|------------------------------------|
-------------9--7--9--6--9-----9--|--9--6-----7--6---------------------|
----------------------------------|--------9--------9--7------------6--|
----------------------------------|-------------------------7--9-------|


        |--3--|  |--3--|  |--3--|              |----3----|     
  E  E  E  E  E  E  E  E  E  E  E     H        Q    Q    Q     
-----------------------------------|--------------------------|
-----------------------------------|--0-----------------------|
-----------------------------------|--1--------9----6---------|
--------6--9--7--6-----------------|--2------------------9----|
--7--9--------------9--7--9--6-----|--------------------------|
--------------------------------7--|--------------------------|


  |----3----|    |----3----|                           
  Q    Q    Q    Q    Q    Q       H.           Q      
--------------------------------|--------------------||
--------------------------------|--------------------||
--9----6------------------------|--------------------||
------------9----7----6----4----|--2-----------------||
--------------------------------|--2-----------------||
--------------------------------|--0-----------------||




Duration Legend
---------------
W - whole
H - half
Q - quarter
E - 8th
S - 16th
T - 32nd
X - 64th
. - note dotted
|-n-|  - n-tuplets


Tablature Legend
----------------
L - tied note
x - dead note
g - grace note
(n) - ghost note
> - accentuded note
NH - natural harmonic
AH - artificial harmonic
TH - tapped harmonic
SH - semi harmonic
PH - pitch harmonic
h - hammer on
p - pull off
b - bend
br - bendRelease
pb - preBend
pbr - preBendRelease
brb - bendReleaseBend
\n/ - tremolo bar dip
\n - tremolo bar dive
-/n - tremolo bar Release up
/n\ - tremolo bar inverted dip
/n - tremolo bar return
-\n - tremolo bar Release down
S - shift slide
s - legato slide
/ -  slide into from below or out of upwards
\ -  slide into from above or out of downwards
~ - vibrato
W - wide vibrato
tr - trill
TP - tremolo picking
T - tapping
S - slap
P - pop
< - fade in
^ - brush up
v - brush down
Добавлено: 20.08.2013
Другие материалы по этой песне:
  • Аккорды и текст

Страница создана 20.08.2013
http://primanota.ru/misc-your-songs/annie-g-eggbert-chords.htm
Привет, Гость.
Предлагаем пройти революционный курс по гитаре.
Подарок от PrimaNota.Ru, забирай!