PrimaNota.ru - самый крупный в мире бесплатный архив песенных текстов, аккордов, табулатур и нот


Misc Your Songs - Arsenault Ed - Mellow Afternoon - таба

Регистрация Запомнить меня
Войти через:  Facebook Google Twitter Vk Yandex Mail.ru

Misc Your Songs - Arsenault Ed - Mellow Afternoon - таба

Печатать
Просмотров: 65
Author/Artist: Ed Arsenault
Title: Mellow Afternoon
Album: N/A
Transcribed by: Ed Arsenault
Email: ed2118@hotmail.com

Part 2 in the "Mellow" series

 Alright, this song starts off moderately slow and very mellow, but gradually works
into a song. This is the first time I have added lyrics to a song, but i thought 
this was an appropriate song to do it with. Basically follow the tab, its not a 
difficult song, but i guess you wouldn't know the strum pattern. But im sure you 
can still play the intro. Anyways, I'll proally record this one to. My 
recommendations for this song is to use a classical guitar or an acoustic, the 
electric isn't as mellow sounding. Anyways, enjoy Mellow Afternoon.

-|-2-3-5-7----2---7-5-3-2-3---0----2h3-3/5-7---2---7p5-3-5---0----------------
-|------------2---------------2----------------2-------------2----------------
-|------------2---------------2----------------2-------------2----------------
-|------------x---------------x----------------x-------------x----------------
-|------------x---------------x----------------x-------------x----------------
-|------------x---------------x----------------x-------------x----------------
                                                                              

-|-------2-----2-3-2-0--2---------2-----2-3-5-3-2-----------------------------
-|-----3---3------------3-------3---3-----------------------------------------
-|---2-------2----------2-----2-------2---------------------------------------
-|-0--------------------x---0-------------------------------------------------
-|----------------------x-----------------------------------------------------
-|----------------------x-----------------------------------------------------
                                                                              

-|-5-----3-----2-----0-----5-----3-----2-----0--------------------------------
-|---0-----0-----0-----0-----0-----0-----0-----0------------------------------
-|-----0-----0-----0-----0-----0-----0-----0-----0----------------------------
-|----------------------------------------------------------------------------
-|----------------------------------------------------------------------------
-|----------------------------------------------------------------------------
                                                                              

-|-------2-----------3-----------2-----------2-----------2-----------3--------
-|-----3---3-------3---3-------3---3-------2---2-------3---3-------3---3------
-|---2-------2---2-------2---2-------2---2-------2---2-------2---2-------2----
-|-0-----------0-----------0-----------0-----------0-----------0--------------
-|----------------------------------------------------------------------------
-|----------------------------------------------------------------------------
                                                                              

-|-------2-----------3--------------------------------------------------------
-|-----3---3-------2---2------------------------------------------------------
-|---2-------2---2-------2----------------------------------------------------
-|-0-----------0--------------------------------------------------------------
-|----------------------------------------------------------------------------
-|----------------------------------------------------------------------------
                                                                              

-|-5-----3-----2-----0-----5-----3-----2-----0-----5-----7-----9-----10-------
-|---0-----0-----0-----0-----0-----0-----0-----0-----0-----0-----0------0-----
-|-----0-----0-----0-----0-----0-----0-----0-----0-----0-----0-----0------0---
-|----------------------------------------------------------------------------
-|----------------------------------------------------------------------------
-|----------------------------------------------------------------------------
                                                                              

-|-9-----7-----5-----3-------------2-------3-------2-3-0----------------------
-|---0-----0-----0-----0---------3-------3-------3----------------------------
-|-----0-----0-----0-----0-----2-------2-------2------------------------------
-|---------------------------0-------0-------0--------------------------------
-|----------------------------------------------------------------------------
-|----------------------------------------------------------------------------
                                                                              


D     		        A
Laying in a mellow place, with my hands on my head.

G 			   D
Dreaming of a place, where love is not dread.

D 				  A
I could sit here all day, let my mind float away

G 			 D
This is the place, i wanna stay

D                  A               G               D
 <--------no words just play the line-------------->

A		       Cmaj7
Oh, what a place , I never wanna look away

G(3200xx)
I just want to stay

A 			   Cmaj7
I could never leave, i could never believe

G(3200xx)       A
This place was, perfect for me

D				  A
Laying in a mellow place, sipping on my rye

G	             D
Hearing the birds, that fly real high

D				A
No busy noises, no loud crys

G 			       D
This afternoon of peace, will eventualy die 

D                   A                    G                  D
 <--------------no words just strum the line----------------->

D				  A
Laying in a mellow place, sleeping on my side

G		     D		  A
this is forever, where i reside

The End - Mellow Afternoons - the time of reflection, the time where we think of you.

Questions? Comments...email me at ed2118@hotmail.com
Добавлено: 08.01.2014
Другие материалы по этой песне:
  • Аккорды и текст

Страница создана 08.01.2014
http://primanota.ru/misc-your-songs/arsenault-ed-mellow-afternoon-chords.htm
Привет, Гость.
Предлагаем пройти революционный курс по гитаре.
Подарок от PrimaNota.Ru, забирай!