PrimaNota.ru - самый крупный в мире бесплатный архив песенных текстов, аккордов, табулатур и нот


Misc Your Songs - Albert York - Linus - таба

Регистрация Запомнить меня
Войти через:  Facebook Google Twitter Vk Yandex Mail.ru

Misc Your Songs - Albert York - Linus - таба

Печатать
Просмотров: 59
The first song I ever wrote and its about my pet cat, Linus. :)

Capo 1

Intro:

   D               A               G               D
e|-----------------------------------------------------------------|
B|-------3---------------2---------------0---------------3---------|
G|-----2-----2---2-----2-----2---2-----0-----0---0-----2-----2---2-|
D|-0-----------0---------------2---------------0---0-----------0---|  X2
A|-----------------0-----------------------------------------------|
E|---------------------------------3-------------------------------|

Verse:

   D               A               G               D
e|-----------------------------------------------------------------|
B|-------3---------------2---------------0---------------3---------|
G|-----2-----2---2-----2-----2---2-----0-----0---0-----2-----2---2-|
D|-0-----------0---------------2---------------0---0-----------0---| 
A|-----------------0-----------------------------------------------|
E|---------------------------------3-------------------------------|

   Bm              F#m             G               A        
e|-----------------------------------------------------------------|
B|-------3---------------2---------------0---------------2---------|
G|-----4-----4---4-----2-----2---2-----0-----0---0-----2-----2---2-|
D|-------------4---------------4---------------0---------------2---|  
A|-2-----------------------------------------------0---------------|
E|-----------------2---------------3-------------------------------|

   D               A               G               D
e|-----------------------------------------------------------------|
B|-------3---------------2---------------0---------------3---------|
G|-----2-----2---2-----2-----2---2-----0-----0---0-----2-----2---2-|
D|-0-----------0---------------2---------------0---0-----------0---| 
A|-----------------0-----------------------------------------------|
E|---------------------------------3-------------------------------|

   Bm              G               A               A        
e|-----------------------------------------------------------------|
B|-------3---------------0---------------2---------------2---------|
G|-----4-----4---4-----0-----0---0-----2-----2---2-----2-----2---2-|
D|-------------4---------------0---------------2---------------2---|  
A|-2-------------------------------0---------------0---------------|
E|-----------------3-----------------------------------------------|

   Asus4       
e|-----------------|
B|-------3---------|
G|-----2-----2---2-|
D|-------------2---|  
A|-0---------------|
E|-----------------|

Chorus:

   G               G               D               A        
e|-----------------------------------------------------------------|
B|-------0---------------0---------------3---------------2---------|
G|-----0-----0---0-----0-----0---0-----2-----2---2-----2-----2---2-|
D|-------------0---------------0---0-----------0---------------2---|  X3 
A|-------------------------------------------------0---------------|
E|-3---------------3-----------------------------------------------|

   G               Em              A               Asus4        
e|-----------------------------------------------------------------|
B|-------0---------------0---------------2-------------------------|
G|-----0-----0---0-----0-----0---0-----2-----2---2---------------2-|
D|-------------0---------------2---------------2-------------2-----| 
A|---------------------------------0---------------0---------------|
E|-3---------------0-----------------------------------------------|

Interlude:

   D               A               G               D
e|-----------------------------------------------------------------|
B|-------3---------------2---------------0---------------3---------|
G|-----2-----2---2-----2-----2---2-----0-----0---0-----2-----2---2-|
D|-0-----------0---------------2---------------0---0-----------0---|  X2
A|-----------------0-----------------------------------------------|
E|---------------------------------3-------------------------------|

Verse 2:

   D               A               G               D
e|-----------------------------------------------------------------|
B|-------3---------------2---------------0---------------3---------|
G|-----2-----2---2-----2-----2---2-----0-----0---0-----2-----2---2-|
D|-0-----------0---------------2---------------0---0-----------0---| 
A|-----------------0-----------------------------------------------|
E|---------------------------------3-------------------------------|

   Bm              F#m             G               A        
e|-----------------------------------------------------------------|
B|-------3---------------2---------------0---------------2---------|
G|-----4-----4---4-----2-----2---2-----0-----0---0-----2-----2---2-|
D|-------------4---------------4---------------0---------------2---|  
A|-2-----------------------------------------------0---------------|
E|-----------------2---------------3-------------------------------|

   D               A               G               D
e|-----------------------------------------------------------------|
B|-------3---------------2---------------0---------------3---------|
G|-----2-----2---2-----2-----2---2-----0-----0---0-----2-----2---2-|
D|-0-----------0---------------2---------------0---0-----------0---| 
A|-----------------0-----------------------------------------------|
E|---------------------------------3-------------------------------|

   Bm              G               A               A        
e|-----------------------------------------------------------------|
B|-------3---------------0---------------2---------------2---------|
G|-----4-----4---4-----0-----0---0-----2-----2---2-----2-----2---2-|
D|-------------4---------------0---------------2---------------2---|  
A|-2-------------------------------0---------------0---------------|
E|-----------------3-----------------------------------------------|

   Asus4       
e|-----------------|
B|-------3---------|
G|-----2-----2---2-|
D|-------------2---|  
A|-0---------------|
E|-----------------|

Chorus 2

   G               G               D               A        
e|-----------------------------------------------------------------|
B|-------0---------------0---------------3---------------2---------|
G|-----0-----0---0-----0-----0---0-----2-----2---2-----2-----2---2-|
D|-------------0---------------0---0-----------0---------------2---|  X3 
A|-------------------------------------------------0---------------|
E|-3---------------3-----------------------------------------------|

   G               Em              A               Asus4        
e|-----------------------------------------------------------------|
B|-------0---------------0---------------2---------------3---------|
G|-----0-----0---0-----0-----0---0-----2-----2---2-----2-----2---2-|
D|-------------0---------------2---------------2---------------2---| 
A|---------------------------------0---------------0---------------|
E|-3---------------0-----------------------------------------------|

Solo:

   D               A               G               D
e|-----------------------------------------------------------------|
B|-------3---------------2---------------0---------------3---------|
G|-----2-----2---2-----2-----2---2-----0-----0---0-----2-----2---2-|
D|-0-----------0---------------2---------------0---0-----------0---| 
A|-----------------0-----------------------------------------------|
E|---------------------------------3-------------------------------|

   Bm              F#m             G               A        
e|-----------------------------------------------------------------|
B|-------3---------------2---------------0---------------2---------|
G|-----4-----4---4-----2-----2---2-----0-----0---0-----2-----2---2-|
D|-------------4---------------4---------------0---------------2---|  
A|-2-----------------------------------------------0---------------|
E|-----------------2---------------3-------------------------------|

   D               G               A               D
e|-----------------------------------------------------------------|
B|-------3---------------0---------------2---------------3---------|
G|-----2-----2---2-----0-----0---0-----2-----2---2-----2-----2---2-|
D|-0-----------0---------------0---------------2---0-----------0---| 
A|---------------------------------0-------------------------------|
E|-----------------3-----------------------------------------------|

   Bm              D               A               Asus4        
e|-----------------------------------------------------------------|
B|-------3---------------3---------------2---------------3---------|
G|-----4-----4---4-----2-----2---2-----2-----2---2-----2-----2---2-|
D|-------------4---0-----------0---------------2---------------2---|  
A|-2-------------------------------0---------------0---------------|
E|-----------------------------------------------------------------|

Verse 3:

   D               A               G               D
e|-----------------------------------------------------------------|
B|-------3---------------2---------------0---------------3---------|
G|-----2-----2---2-----2-----2---2-----0-----0---0-----2-----2---2-|
D|-0-----------0---------------2---------------0---0-----------0---| 
A|-----------------0-----------------------------------------------|
E|---------------------------------3-------------------------------|

   Bm              F#m             G               A        
e|-----------------------------------------------------------------|
B|-------3---------------2---------------0---------------2---------|
G|-----4-----4---4-----2-----2---2-----0-----0---0-----2-----2---2-|
D|-------------4---------------4---------------0---------------2---|  
A|-2-----------------------------------------------0---------------|
E|-----------------2---------------3-------------------------------|

   D               A               G               D
e|-----------------------------------------------------------------|
B|-------3---------------2---------------0---------------3---------|
G|-----2-----2---2-----2-----2---2-----0-----0---0-----2-----2---2-|
D|-0-----------0---------------2---------------0---0-----------0---| 
A|-----------------0-----------------------------------------------|
E|---------------------------------3-------------------------------|

   Bm              G               A               A        
e|-----------------------------------------------------------------|
B|-------3---------------0---------------2-------------------------|
G|-----4-----4---4-----0-----0---0-----2-----2---2-----------------|
D|-------------4---------------0---------------2-------------------|  
A|-2-------------------------------0---------------0---------------|
E|-----------------3-----------------------------------------------|

Chorus 3:

   G               G               D               A        
e|-----------------------------------------------------------------|
B|-------0---------------0---------------3---------------2---------|
G|-----0-----0---0-----0-----0---0-----2-----2---2-----2-----2---2-|
D|-------------0---------------0---0-----------0---------------2---|  X3 
A|-------------------------------------------------0---------------|
E|-3---------------3-----------------------------------------------|

   G               Em              A               Asus4        
e|-----------------------------------------------------------------|
B|-------0---------------0---------------2---------------3---------|
G|-----0-----0---0-----0-----0---0-----2-----2---2-----2-----2---2-|
D|-------------0---------------2---------------2---------------2---| 
A|---------------------------------0---------------0---------------|
E|-3---------------0-----------------------------------------------|

Final Chorus:

   G               G               D               A        
e|-----------------------------------------------------------------|
B|-------0---------------0---------------3---------------2---------|
G|-----0-----0---0-----0-----0---0-----2-----2---2-----2-----2---2-|
D|-------------0---------------0---0-----------0---------------2---|  X3 
A|-------------------------------------------------0---------------|
E|-3---------------3-----------------------------------------------|

   G               Em              A               Asus4        
e|-----------------------------------------------------------------|
B|-------0---------------0---------------2---------------3---------|
G|-----0-----0---0-----0-----0---0-----2-----2---2-----2-----2---2-|
D|-------------0---------------2---------------2---------------2---| 
A|---------------------------------0---------------0---------------|
E|-3---------------0-----------------------------------------------|

Outro:

   G               Em              A               Asus4           D
e|-------------------------------------------------------------------------|
B|-------0---------------0---------------2---------------3---------3-------|
G|-----0-----0---0-----0-----0---0-----2-----2---2-----2-----2---2-2-------|
D|-------------0---------------2---------------2---------------2---0-------| 
A|---------------------------------0---------------0-----------------------|
E|-3---------------0-------------------------------------------------------|

Lyrics and chords:

D    A    G    D    
D    A    G    D    

D           A             G             D
Linus is my cat, and he's like a son to me
     Bm                F#m                 G                A
He's been around since I was small, and he means so much to me
D              A          G            D
  He brings me happiness,  He makes me smile
       Bm           G                A       A      Asus4
And he loves to be around me all the while

G                                D         A
Linus is the best friend I could wish for
   G                              D       A
He cheers me up when I am feeling sad or alone
G                              D        A
Linus is a friend that I could die for
G             Em                 A       Asus4(pause)
  He makes my house feel like my home

D    A    G    D    
D    A    G    D

    D                A          G            D
His eyes are big and wise, he's only got one tooth
           Bm              F#m                   G               A
He's moved house with us a hundred times and his mind is full of truth
      D                A             G               D
We've had some fun and laughter, but that was in the past
   Bm             G                A      A     Asus4
So we'll keep our hopes to make it last

G                                D          A
Linus is the best friend I could wish for
   G                              D       A    
He cheers me up when I am feeling sad or alone
G                              D         A
Linus is a friend that I could die for
G             Em                 A         Asus4
  He makes my house feel like my home

D    A    G    D    
Bm   F#m  G    A
D    G    A    D
Bm   D    A    Asus4

D           A      G              D
Linus is my buddy, hes my closest friend
    Bm               F#m            G              A
His life has been so wonderful, I'd hate to see it end
        D                A          G           D
But his spirit lives within me, his story is so long
Bm            G                   A       A(pause)
That is why I wrote him, a little song

G                                D          A
Linus is the best friend I could wish for
   G                              D       A
He cheers me up when I am feeling sad or alone
G                              D        A
Linus is a friend that I could die for
G             Em                 A       Asus4
  He makes my house feel like my home

G                                D          A
Linus is the best friend I could wish for
   G                              D       A
He cheers me up when I am feeling sad or alone
G                              D        A
Linus is a friend that I could die for
G             Em                 A       Asus4
  He makes my house feel like my home

G    Em    A    Asus4    D(let ring)
Добавлено: 21.11.2013
Другие материалы по этой песне:
  • Аккорды и текст

Страница создана 21.11.2013
http://primanota.ru/misc-your-songs/albert-york-linus-chords.htm
Привет, Гость.
Предлагаем пройти революционный курс по гитаре.
Подарок от PrimaNota.Ru, забирай!