PrimaNota.ru - самый крупный в мире бесплатный архив песенных текстов, аккордов, табулатур и нот


Misc Your Songs - Amanda James - When Im Gone - таба, видео

Регистрация Запомнить меня
Войти через:  Facebook Google Twitter Vk Yandex Mail.ru

Misc Your Songs - Amanda James - When Im Gone - таба, видео

Печатать
Просмотров: 62
i made this song few months ago so if you would like to know anymore about my songs you 
email me on rmillsy_rulz04@hotmail.com

well im going tomorrow and i will be leaving you,
-1---5---6-7----1/2---4-5-------3----4--5---6---878-------|e this is bottom
---2------------------------45-----5-------6----------8---|
-------5-------6---------7--------6-----5-------------5---|
-4--------------5--6----------6---------6-----6---6-----6-|
----1-------3---------5-----7------8-----9------3----5--6-|
----------------------------------------------------------|e this is top
sailing through the ocean to get away from you,
----------2-----------4--5--------------------6------4-4--|
-------2--------3-------------4----------5-----------6-6--|
------3-4/5---------4-------3----1---2-------1/2----------|
---------------1-----------------------------------2-3----|
-------------8--------------6----------------------6------|
-------1-------------------------------2----------------4-|
i know its supa harsh but im doing it for you, thats y you gota undastand i dont luv u
--------2------3/4-------6/7-----------------3---5--6----|
---2------5-----------6-------------7--------------------|
---------------------------------------------------------|
----5----------6----3------8----9----11-----1-------4----|
------------------------------------------------3--------|
---------------------------------------------------------|
chorus:::::::
but when im gone i will stand by you oh wen im gone i hope you miss me like i miss you 
chorus tabs five times)
------3----5----8--------9------------10----1----------4-|
---------------------------------------------------------|
---1----2----5---7--9------10-----1--3-------------------|
---------------------------------------------------------|
1--------------------------------------------------------|
1--------------2------7---9----------------------10------|
end chorus;

solo:
--------------1/2/3/2/1-----------------------2----4----5-|
------1---4---------------6----8----9---6--5--4-----------|
-------3-----7-----4--8--9---10----1--------4-----7--5----|
-----------------------------------5-------------7------8-|
-------------------4------6----9---2----8----3-----7----7-|
----------2----------5---------7---------10--11-----------|
see you when we meet again.
---------------------------------------------------------|
-----4------8---2-------9-----------7--------------------|
---------------------------------------------------------|
----------------------------4----------------------------|
4------------------------------------------------------5-|
-----------------2------------------------4---------4----|
thanx enjoy
Добавлено: 24.12.2013
Другие материалы по этой песне:
  • Аккорды и текст

Страница создана 24.12.2013
http://primanota.ru/misc-your-songs/amanda-james-when-im-gone-chords.htm
Привет, Гость.
Предлагаем пройти революционный курс по гитаре.
Подарок от PrimaNota.Ru, забирай!