PrimaNota.ru - самый крупный в мире бесплатный архив песенных текстов, аккордов, табулатур и нот


Misc Unsigned Bands - Virt - Blood Of Ganon - таба

Регистрация Запомнить меня
Войти через:  Facebook Google Twitter Vk Yandex Mail.ru

Misc Unsigned Bands - Virt - Blood Of Ganon - таба

Печатать
Просмотров: 51
-------------------------------------------------------------------------------
                             Blood of Ganon - Virt
-------------------------------------------------------------------------------
Tabbed by: Edward Cosio
Email: Brain_damage_67@hotmail.com





This isn't actually the whole song, rather from where the Zelda I theme kicks in. (2:24)
From there I have perfectly. :p
Including the entire Castle Theme part.
Oh, minus the Zelda II Battle Theme at the end. [[still working on that]] 

      (2:24)
Zelda I Theme:

e|--------------------------------|--------------------------------------|
B|-/7-----------------7---5p3-5---|----/7-----------------7--6p4-6-------|
G|--------6-----6--6--------------|-----------7-----7p6h7--------------6-|
D|--------------------------------|--------------------------------------|
A|--------------------------------|--------------------------------------|
E|--------------------------------|--------------------------------------|

 |---------------4-6-7-9-----4-6-7-9------|------------4-6-7-9-----4-6-7-9-|
 |-/7-------7--7---------7--7--------7---7|7------7--7---------7--7--------|
 |-----6-------------------------------6--|---6----------------------------|
 |----------------------------------------|--------------------------------|
 |----------------------------------------|--------------------------------|
 |----------------------------------------|--------------------------------|

        (2:50)
Castle Theme: {transition}

 |---------------------------------------|
 |-/7------------7--8--10--6-10-7--------|
 |-------6---------------------------6---|
 |---------------------------------------|
 |---------------------------------------|
 |---------------------------------------|

 |------------------------------5----2---|
 |----5------3--2--0----2--5-------------|
 |-6-------------------------------------|
 |---------------------------------------|
 |---------------------------------------|
 |---------------------------------------|

Rhythym after ^^^

 |---------------------------------------|
 |---------------------------------------|
 |---------------------------------------|
 |-4-4-4--2--4----5---7-4~---------------|
 |-4-4-4--2--4----5---7-4~---------------|
 |-2-2-2--0--2----3---5-2~---------------|

  (3:11) Castle theme part I: [Rhythym]
 |---|---------------------------------------------------------| X4 
 |---|---------------------------------------------------------|
 |---|---------------------------------------------------------|
 |-4-|-4-----4---2-----2---4-----4-----4-4-4---4---5---3-------|
 |-4-|-4-----4---2-----2---4-----4-----4-4-4---4---5---3-------|
 |-2-|-2-----2---0-----0---2-----2-----2-2-2---2---3---1-------|

  (3:29) Castle theme part I: [Lead]
 |---------------------------------------| X2
 |-/7------------7--8--10--6h10-7--------|
 |-------6-----6---------------------6---|
 |---------------------------------------|
 |---------------------------------------|
 |---------------------------------------|

 |-/7------------7--12--10---8-6-7-----------------------------|
 |-------7-----7---------------------7--------7h9h10-9h10h12---|
 |-------------------------------------------------------------|
 |-------------------------------------------------------------|
 |-------------------------------------------------------------|
 |-------------------------------------------------------------|

 |---------------------------------------|
 |-/7------------7--8--10--6h10-7--------|
 |-------6-----6---------------------6---|
 |---------------------------------------|
 |---------------------------------------|
 |---------------------------------------|
 
(3:43) Castle theme part II: 
 |---------------------5-----------------| X2
 |--5-----3p2p0--2--5-----5/7------------|
 |---------------------------------------|
 |---------------------------------------|
 |---------------------------------------|
 |---------------------------------------|

 |---------------------2--5--|---3p2p0--2--3--5--7-----5p4----4--5--7--9---|
 |--5-----3p2p0--2--5--------------------------------------7---------------|
 |-------------------------------------------------------------------------|
 |-------------------------------------------------------------------------|
 |-------------------------------------------------------------------------|
 |-------------------------------------------------------------------------|

(4:09) Castle Theme part III
 quick up and down picking[first time only](
Добавлено: 26.08.2013
Другие материалы по этой песне:
  • Аккорды и текст

Страница создана 26.08.2013
http://primanota.ru/misc-unsigned-bands/virt-blood-of-ganon-chords.htm
Привет, Гость.
Предлагаем пройти революционный курс по гитаре.
Подарок от PrimaNota.Ru, забирай!