PrimaNota.ru - самый крупный в мире бесплатный архив песенных текстов, аккордов, табулатур и нот


Misc Unsigned Bands - Vector Awake - Play Away - таба

Регистрация Запомнить меня
Войти через:  Facebook Google Twitter Vk Yandex Mail.ru

Misc Unsigned Bands - Vector Awake - Play Away - таба

Печатать
Просмотров: 52
GUITARRA SOLO

INTRO - (Am, C, Em, G) - Dedilhado


                                                             1
E|------0-----0------------------0-----0--------------------|
B|----1-----1-------0-----0----1-----1-------0-----0--------|
G|--2-----0-------0-----0----2-----0-------0-----0----------|
D|--------------2-----0------------------2-----0------------|
A|----------------------------------------------------------|
E|----------------------------------------------------------|
  1

                                                             2
E|------0-----0-----------------0-----0---------------------|
B|----1-----1-------0-----0---1-----1-------0-----0---------|
G|--2-----0-------0-----0---2-----0-------0-----0-----------|
D|--------------2-----0-----------------2-----0-------------|
A|----------------------------------------------------------|
E|----------------------------------------------------------|
  2

VERSO 1 - (Am, C, E, G) - Dedilhado
                                                                             3
E|--------0-------0---------------------0-------0---------------------------|
B|------1------1---------0-------0----1------1---------0------0-------------|
G|----2------0---------0------0----2-------0---------0------0---------------|
D|------------------2-------0---------------------2-------0-----------------|
A|--------------------------------------------------------------------------|
E|--------------------------------------------------------------------------|
  3

                                                                        4
E|----------0------0-------------------0------0------------------------|
B|--------1-----1--------0-------0---1------1--------0------0----------|
G|------2-----0--------0------0----2------0--------0-----0-------------|
D|-------------------2------0-------------------2------0---------------|
A|---------------------------------------------------------------------|
E|---------------------------------------------------------------------|
  4

                                                         5
E|------------------------------------------------------|
B|----1---1---1---1-------------------1---1-------------|
G|--2---2---0---0-----0---0---0---0-2---2---------------|
D|------------------2---2---0---0-----------------------|
A|------------------------------------------------------|
E|------------------------------------------------------|
  5

                                                            6
E|---------------------------------------------------------|
B|------1----1---------------------------------------------|
G|---0----0------0----0---0----0---------------------------|
D|-------------2----2---0----0-----------------------------|
A|---------------------------------------------------------|
E|---------------------------------------------------------|
  6







REFRÃO 1 - (Am, C, Em, G) - Dedilhado - Repetir 7 vezes
                                                         7
E|------------------------------------------------------|
B|------------------------------------------------------|
G|---------------------2---2-----------0---0------------|
D|-------------2---2-2---2-----2---2-2---2--------------|
A|-----------0---0-----------3---3--------------2---2---|
E|--------------------------------------------3---3-----|
  7

                                                          8
E|-------------------------------------------------------|
B|-------------------------------------------------------|
G|-------------------------------------------------------|
D|-----0----0---0----0---2----2--------------------------|
A|---2----2---2---2----2---3----2-0----------------------|
E|-------------------------------------------------------|
  8

VERSO 3 - (Am, C, Em, G) - Palhetado

Am (para baixo) - C (para cima) - Em (para baixo) - G ( para baixo)

INTERLÚDIO 3/4 - (Am, C, Em, G) - Dedilhado
                                                               9
E|------------------------------------------------------------|
B|------------------------------------------------------------|
G|---2-2-2\--9P0-0-0--0---------------------------------------|
D|----------------------2-2-\9P0-0--0-------------------------|
A|------------------------------------------------------------|
E|------------------------------------------------------------|
  9

VERSO 4 - (Am, C, G, Em) - Palm Muted

Am (baixo, baixo, cima) - C (baixo, baixo, cima) - Em (baixo, baixo, cima)
G (baixo, baixo, cima)
Am (baixo, baixo, cima), C (baixo, baixo, cima) - Em (baixo 6x)

Pré - Refrão - (Am, C, G, Em) - Palhetado - Repetir 2 vezes

Am Am (Am 3 vezes MUTADO) Am Am
C C ( C 3 vezes MUTADO) C C
G G ( G 3 vezes MUTADO) G G
Em Em Em Em Em Em

Ritmo - BAIXO BAIXO (CIMA BAIXO CIMA) BAIXO CIMA
                                      Mutado


INTERLÚDIO R/D - Distorção Leve - Palhetado e Mutado

Am Am Am
C C C
G G G
D D D

Am Am Am
C C C
G G G
Em Em Em
C4 C4 C4

REFRÃO VARIADO - Distorção Leve - Dedilhado

Parte Principal
                                                                         10
E|-----------------------------------------------------------------------|
B|-----------------------------------------------------------------------|
G|---------------2---2-------------0----0--------------------------------|
D|-----2----2-2----2------2----2-2----2---------------0---0----0---------|
A|---0----0-------------3---3---------------2----2-2----2----2-----------|
E|----------------------------------------3----3-------------------------|
  10

Variação 1
                                         11
E|---------------------------------------|
B|---------------------------------------|
G|---------------------------------------|
D|--0------------------------------------|
A|----2H3P2-0----------------------------|
E|---------------------------------------|
  11

Variação 2
                                         12
E|---------------------------------------|
B|---------------------------------------|
G|---------------------------------------|
D|---------------------------------------|
A|---3H5P3-0-0---------------------------|
E|---------------------------------------|
  12





Variação 3
                                                             13
E|-----------------------------------------------------------|
B|-----------------------------------------------------------|
G|-----------------------------------------------------------|
D|-----------------------------------------------------------|
A|---2\---1414\---2-2----------------------------------------|
E|-----------------------------------------------------------|
  13


Sequência:
1 2 2 3 1 1 2


DARK TAPPING 1 - Distorção Pesada - Repetir 2 vezes

Solo realizado somente na 6a corda, utilizando palheta.

0t3h2 0t3h2 0t5h2 0t5h2 0t7h2 0t7h2 0t9h2 0t9h2

0t3h2 0t3h2 0t5h2 0t5h2 0t7h2 0t7h2 0t5h2 0t9h2

0t3h2 0t3h2 0t5h2 0t5h2 0t7h2 0t7h2 0t9h2 0t9h2

0t3h2 0t3h2 0t5h2 0t5h2 0t7h2 0t7h2 0t5h2 0t9h2


DARK TAPPING 2 - Distorção pesada - Repetir 2 vezes

Solo realizado somente na 6a corda, utilizando palheta.

0t3h2p0h2p0t3h2 0t3h2

0t5h2p0h2p0t5h2 0t5h2

0t7h2p0h2p0t7h2 0t7h2

0t9h2p0h2p0t9h2 0t9h2



Na segunda vez, na última linha,
essa variação pode ser aplicada:

0t9h2/9 0t9h2 0t7h2 0t5h2 0t3h2

Observação:
Nessa variação, as mãos Esquerda e Direta, trocam de lugar,
utilizando o slide como liga.

SOLO - Distorção Pesada

                                                                                14
E|------------------------------------------------------------------------------|
B|--------------------------------------------15\-------------------------------|
G|---15b¹--16-15r--15--14-15--17-15--14-15--12----------------------------------|
D|------------------------------------------------------------------------------|
A|------------------------------------------------------------------------------|
E|------------------------------------------------------------------------------|
  14

                                                                15
E|--------------------------------------------------------------|
B|--------------------------------------------------------------|
G|--15-15-14-15-17-15-14--19-15-14-17-15-14-12------------------|
D|--------------------------------------------------------------|
A|--------------------------------------------------------------|
E|--------------------------------------------------------------|
  15

                                                                  16
E|----------------------------------------------------------------|
B|--------------------------------------15------------------------|
G|-15b½--1615r--15-14-15-17-15-14-15-12---12\---------------------|
D|----------------------------------------------------------------|
A|----------------------------------------------------------------|
E|----------------------------------------------------------------|
  16

                                                                      17
E|--------------------------------------------------------------------|
B|-----------------------------------------------15-------------------|
G|--12-12-12-12-14-14-14-14-15-15-15-15-17-14-12----12----------------|
D|--------------------------------------------------------------------|
A|--------------------------------------------------------------------|
E|--------------------------------------------------------------------|
  17

                                                                  18
E|----------------------------------------------------------------|
B|----------------------------------------------------------------|
G|---12-12-12-14-14-14-15-15-15-19-17-15-14-15-12-----------------|
D|----------------------------------------------------------------|
A|----------------------------------------------------------------|
E|----------------------------------------------------------------|
  18

                                                                                              19
E|----------------------------------------------------------------------------------------------|
B|-----------------------------------------------------------------------------------15---------|
G|---1212\--1414\---1515\--17-17-19--1719\--17-17-15-17\--15-15-1415\---14-1214\--12----12------|
D|----------------------------------------------------------------------------------------------|
A|----------------------------------------------------------------------------------------------|
E|----------------------------------------------------------------------------------------------|
 19

                                                                                       20
E|-------------------------------------------------------------------------------------|
B|-------------------------------------------------------------------------------------|
G|---1212\--1414\--1515\--17-17-19-1719\---17-17-1517\--15-15-1415\--12-12-------------|
D|-------------------------------------------------------------------------------------|
A|-------------------------------------------------------------------------------------|
E|-------------------------------------------------------------------------------------|
  20


REFRÃO 3 - (Am, C, Em, G, C9, A4) -  Distorção Pesada - Palhetado

       v  v  ^   ^  v  ^  v   v  ^  ^  v  ^  v  v  ^   ^  v  v  ^  v  ^  v   ^  v  ^         21
E|---------------------------------------------------------------------------------------|
B|----1--1--1---1--1--1--1---1--1--1--1--1-----------------------------------------------|
G|----2--2--2---2--2--2------------------------------------------------------------------|
D|----2--2--2---2--2--2--2---2--2--2--2--2------------------2--2--2--2--2---2--2--0------|
A|-----------------------3---3--3--3--3--3--2--2--2---2--2--2--2--2--2--2---3--2--0------|
E|------------------------------------------3--3--3---3--3-------------------------------|
  21


FINAL SOLO - Distorção Pesada
                                                                      22
E|--------------------------------------------------------------------|
B|--------------------------------------------------------------------|
G|---12-12-12-12-14-14-14-14-15-15-15-15-17-15-19-14-12---------------|
D|--------------------------------------------------------------------|
A|--------------------------------------------------------------------|
E|--------------------------------------------------------------------|
  22

                                                                    23
E|------------------------------------------------------------------|
B|------------------------------------------------------------------|
G|--12-12-12-12-14-14-14-14-15-15-15-15-15-15-14-14-----------------|
D|------------------------------------------------------------------|
A|------------------------------------------------------------------|
E|------------------------------------------------------------------|
  23

                                                                                                 24
E|-----------------------------------------------------------------------------------------------|
B|---------------15--------------15--------------------------------------15----------------------|
G|---12-12-12-12----14-15--15-17----17-15-17-19-17-15-17-15--14-15-14-12----15-14-15-14-12-12----|
D|-----------------------------------------------------------------------------------------------|
A|-----------------------------------------------------------------------------------------------|
E|-----------------------------------------------------------------------------------------------|
  24

VIOLÃO

(INTRO)

(VERSO 1)

 Am       C        Em       G
What i think About what happened?

 Am   C   Em       G
I dont even know, it was so fast!

 Am                     C     Em G
But if it's that what you want...
Am
For me is okay!
   G                      D
You just have to promise something...

GO AND PLAY AWAY!

(REFRÃO 1)
Am     C    G     Em
                       GO PLAY AWAY!
 Am          C       G          Em
Cause i dont even wanna heard about you!
  Am          C      Em          G
Cause i dont even wanna see you!
Am          C           GEm
So go! Go and play away!
  Am            C
Theres Nothing to Afraid!


 G               Em
You're hot like a laid!

    Am               C          G         Em
So go and go and go and go! Go and play away!

(VERSO 3)
  Am                                        C
You just said you were going to buy some cigarette .
    G            Em
And when you came back...

(INTERLÚDIO 3/4)

AmC Em G

(VERSO 4)

You know i dont give a shit!

But it's better you run...

Cause you desperted something on me

That i cant hold down!

(Pré - Refrão)
      Am                 C
Even if i try, even if i try hard!
          G                      Em
And that desire is coming from the afterlife!


REFRÃO 1

(INTERLÚDIO R/D)
    Am
And now nothing else matters!
   C
Cause i dont need you! No more!
       G
But what im going to do with this angry
     Em
inside my heart?

(REFRÃO 2)

I dont feel, i dont care, i wont loose, so go and play away

I don live, i dont heart, i dont betray, and you should have no afraid!

REFRÃO 1
REFRÃO 2
REFRÃO 1

(DARK TAPPING 1)
Em  G  D  Am

(DARK TAPPING 2)
C   D   G   Am

(SOLO)
AmGD Am C Dm

(REFRÃO 3 E FINAL SOLO)
Am C  G  Em


SEQUÊNCIA:

INTRO
VERSO 1
REFRÃO 1
VERSO 3
INTERLÚDIO 3/4
VERSO 4
REFRÃO 1
INTERLÚDIO R/D
REFRÃO 2
REFRÃO 1
REFRÃO 2
REFRÃO 1
DARK TAPPING 1
DARK TAPPING 2
SOLO
REFRÃO 3
FINAL SOLO
Добавлено: 18.08.2013
Другие материалы по этой песне:
  • Аккорды и текст

Страница создана 18.08.2013
http://primanota.ru/misc-unsigned-bands/vector-awake-play-away-chords.htm
Привет, Гость.
Предлагаем пройти революционный курс по гитаре.
Подарок от PrimaNota.Ru, забирай!