PrimaNota.ru - самый крупный в мире бесплатный архив песенных текстов, аккордов, табулатур и нот


Misc Unsigned Bands - Touch Peel And Stand - Days Of The New - таба

Регистрация Запомнить меня
Войти через:  Facebook Google Twitter Vk Yandex Mail.ru

Misc Unsigned Bands - Touch Peel And Stand - Days Of The New - таба

Печатать
Просмотров: 54
It says this band is unsigned but they're really big where i live so yeah, and here it is

Days of the New
by Touch, Peel and Stand

Intro/Chorus

e------------------------------------------------------------------------|
B------------------------------------------------------------------------|
G--5/7---7---5/7-7----7--------------------------------------------------|
D--5/7---7---5/7-7----7-----3/5--5-5--5--3--5--5-5------3-3-3-3-3-3-3-3--|
A--3/5---5---3/5-5----5-----3/5--5-5--5--3--5--5-5--0/3-3-3-3-3-3-3-3-3--|
D------0---0--------0----0--3/5--5-5--5--3--5--5-5--0/3-3-3-3-3-3-3-3-3--|


e----------------------------------------------------------x-x-x-x------|
B----------------------------------------------------------x-x-x-x------|
G----------------------------------------4/5-5-5-----------x-x-x-x------|
D--3-3-3--3/5-5-5-5-3-0---0----5-3-0-----4/5-5-5--5-3-0----x-x-x-x------|
A--3-3-3--3/5-5-5-5-3-0-0-0-0--5-3-0-0---2/3-3-3--5-3-0----x-x-x-x------|
D--3-3-3--3/5-5-5-5-3-0-0-0-0--5-3-0-0------------5-3-0----x-x-x-x------|


Verse (Guitar)(after the first bass riff)
e-------------------------------------|
B-------------------------------------|
G-------------------------------------|
D--3--5-0--0-3-5-0--0-3--5--6--5--3---|
A--3--5-0--0-3-5-0--0-3--5--6--5--3---|
D--3--5-0--0-3-5-0--0-3--5--6--5--3---|

Chorus
------
The same as the intro.!!

Bridge "ooohhhhh"
------
   |||     REPEAT THIS TWO TIMES           |||   this changes!!!
e-----------------------------------------------|-------------|
B-----------------------------------------------|-------------|
G-----------------------------------------------|-------------|
D--3/5-3-0--3/5-0--3/5-5-3-0--5/6-5---3/5-3-----|-------------|
A--3/5-3-0--3/5-0--3/5-5-3-0--5/6-5-0-3/5-3-0-0-|------3"""---|
D--3/5-3-0--3/5-0--3/5-5-3-0--5/6-5-0-3/5-3-0-0-|-3/5---------|

This comes on the second time of the above (instead of that last measure)

e--------------------|    Then the solo comes in.
B--------------------|
G--------------------|
D--------------------|
A-0-0-3-5--6--5--3---|
D-0-0-3-5--6--5--3---|
Добавлено: 02.12.2013
Другие материалы по этой песне:
  • Аккорды и текст

Страница создана 02.12.2013
http://primanota.ru/misc-unsigned-bands/touch-peel-and-stand-days-of-the-new-chords.htm
Привет, Гость.
Предлагаем пройти революционный курс по гитаре.
Подарок от PrimaNota.Ru, забирай!