PrimaNota.ru - самый крупный в мире бесплатный архив песенных текстов, аккордов, табулатур и нот


Misc Unsigned Bands - The Parlor Mob - When I Was An Orphan - таба

Регистрация Запомнить меня
Войти через:  Facebook Google Twitter Vk Yandex Mail.ru

Misc Unsigned Bands - The Parlor Mob - When I Was An Orphan - таба

Печатать
Просмотров: 54
Уроки эстрадного вокала в Санкт-Петербурге
----------------------------------------------------------------------------
                             SONG NAME - Band Name
----------------------------------------------------------------------------
Tabbed by: Soundwave1239
Email: soundwave1239@yahoo.com
this is only the acoustic parts really. except there's a little of the electric
but i'll tab the electric later maybe.
enjoy

http://www.myspace.com/theparlormob

intro:

e|-------0------------------0------------------0------------------0---------------------|
B|---------0------------------0-----------------0------------------0--------------------|
G|--------------------------------------------------------------------------------------|
D|---2-------2-----2-----2--------2h5p2--2--------2-----2-----2---------2h5p2---2-------|
A|----------------2------------2h5------5--------------2-------------2h5------5---------|
E|--0------------0-----0--------------------0---------0-----0---------------------------|
             
e|------0--------------||----0------------------------------||\
B|--------0------------||------0----------------3------3----|| \
G|---------------------||---------------------4--------2----||  \ 
D|----------2------2---||--2--------4h5p4p0-5-----7-0-------||  / Repeat this part
A|----------------2----||--------2h5------------------------|| /
E|--0------------0-----||0--------------------------------3b||/
                         
 
  part a
 I can see... (you can figure out the strumming, i believe in you)     
e|-0---0------------------------|          
B|-0---3-----1---------3--3--3--|       
G|-1---2-----1---------2--2--2--|         
D|-2---0-----1------0--0--4--2--| x2   
A|-2------4--4--2-4-------------|       
E|-0----------------------------|         


part b
find strumming
e|--0--|
B|--1--|
G|--2--| 
D|--2--|  
A|--0--|
E|-----|


part c
When i was an orphan...
e|--0---2--|
B|--1---3--|
G|--0---2--| x4  
D|--2---0--|
A|--3------|
E|---------|


part d
e|--0----------------|
B|--0----------------|
G|--0---4-2-0--------|
D|--2---------4-2-0--| x2  
A|--2----------------|
E|--0----------------|


part e
e|--------------------------------|
B|--------------------------------|
G|--4--4-2------------------------|  
D|--4------2-4-5p0-2h4p2p0--------|
A|--2----------------------2p0----|
E|-----------------------------3b-|


part f
e|--0---|-7----7-8-7--------------|                     |--0-2-3-5-3--------2----|
B|--0---|---10----------7-8-10-8--|                     |-------------2-4-5---5--|
G|--0---|-------------9-----------| x2 then harmony:    |------------------------|
D|--2---|-------------------------|                     |------------------------|
A|--2---|-------------------------|                     |------------------------|
E|--0---|-------------------------|                     |------------------------|

pick fast
e|-----------------------|
B|-5-7-8-10-12-13-16-17--|
G|-----------------------|
D|-----------------------|
A|-----------------------|
E|-----------------------|


order:
Intro
part a
part b
part a
part b
part c
part d
part c
part e
intro
part a
part a
part b
part c
part d
part e
part f
part a


| /  slide up
| \  slide down
| h  hammer-on
| p  pull-off
| ~  vibrato
| +  harmonic
| x  Mute note
===============================================================================
Добавлено: 08.09.2013
Другие материалы по этой песне:
  • Аккорды и текст

Страница создана 08.09.2013
http://primanota.ru/misc-unsigned-bands/the-parlor-mob-when-i-was-an-orphan-chords.htm
Привет, Гость.
Предлагаем пройти революционный курс по гитаре.
Подарок от PrimaNota.Ru, забирай!