PrimaNota.ru - самый крупный в мире бесплатный архив песенных текстов, аккордов, табулатур и нот


Misc Unsigned Bands - The Melody - Paradise - таба, видео

Регистрация Запомнить меня
Войти через:  Facebook Google Twitter Vk Yandex Mail.ru

Misc Unsigned Bands - The Melody - Paradise - таба, видео

Печатать
Просмотров: 86
-- Paradise by The Melody -- coffee prince
June 26, 2012

Tabbed by: Simply G.C.
Tunning: Standard
Chords: A E D A


Intro:
e|---0------------------------|---0-----------------------------------------|
B|-----2----3-0----1--------0-|-----2----3-0----1--------0--0---0--0---0--0-|
G|-2------0----------2----1---|-2------0----------2----1--1----1-1----1-1---|
D|---------------3------2-----|---------------3------2-----2--2---2--2---2--|
A|----------------------------|---------------------------------------------|
E|----------------------------|---------------------------------------------|
                               ahhhaa...aha..oo..ahhh..

Verse 1:
   A            E          D               A
e|-----0-----------------------------------------|
B|---------2-------3----0-----1----------------0-|
G|-2------------0----------------2-----------1---|
D|-------------------------3---------------2-----|  
A|-----------------------------------------------|
E|-----------------------------------------------| 2x
Summag hil deut himdeun gonon jeina jobeun ilsang
Remember geugoteul ijji anhgo salsu itdaneun gon

e|-------------------------|
B|------0--0---0--0---0--0-|
G|----1--1----1-1----1-1---|
D|--2-----2--2---2--2---2--|
A|-------------------------|
E|-------------------------|
Paradise Paradise Paradise Paradise Paradise Paradise


Verse 2: same tab and chords as verse 1
Onseisangei maeum imajneun nayei chingu deulgwa hamkei (Sumsyei gochwi hago)
gateun eumak eulneun gogateun norael buleugo
Daliddo oleumyeon geulohkei
e|------------------|------------------|-------------------0--|
B|----------0-----0-|----------0-----0-|----------0-----0--0--|
G|-----1--------1---|-----1--------1---|-----1--------1----1--|
D|-2-------------2--|-2-------------2--|-2-------------2------|
A|------------------|------------------|----------------------|
E|------------------|------------------|----------------------|
   Paradise Paradise  Paradise Paradise  Paradise Paradise


Chorus: 
     A                E                 D                 A   
e|-------x-------x---------x-------x------2--x--2-2--x--0------x------x---|
B|--2-2--x--2-2--x--0---0--x--0-0--x--0---3--x--3-3--x--0---2--x--2-2-x-0-|
G|--2-2--x--2-2--x--0---1--x--1-1--x--0---2--x--2-2--x--0---2--x--2-2-x-0-|
D|--2-2--x--2-2--x--0---2--x--2-2--x--0-0----x--0----x------2--x--2-2-x-0-|
A|--0----x--0----x----2----x--2----x---------x-------x----0----x--0---x---|
E|-------x-------x---------x-------x---------x-------x---------x------x---|4x
         ^tap with palm                                                  
Close your eyes. You get it. 
Niga wonhaneun golalgo itni
Itdamyeon nunddo geulohkei saeng gakman eulo neonja yulowa
It's true. You can make it. Modudeul neolgi dae hamyeo
It's true. Modudeul daneoreul gidali go 
  isseo
e|--0--0-----------|
B|--2--0--------5--|
G|--2--1--1s2-4----|
D|--2--2-----------|
A|--0--2-----------|
E|-----------------|

    A       E              D                 A  
Kodalan geunun eunni gawon haneun geoldan go itni
     A       E              D            A              A
Itdamyeon ggumgwo geulohkei ggumman eulodo neonja yulowa
     E              D                A              A
It's true. You can make it. Modudeul neolgi dae hamyeo
     E           D              A            A  E
It's true. Modudeul daneoreul gidali go isseo


A E D A   4x
tututuuru..


Outro:
e|-----0-------0-------2-------0-----|      
B|------2-2-----0-1---3-3-3-----2-2--|
G|----2--2----1--1---2---2----2--2---|
D|---2-------2------0--------2-------|
A|--0-------2---------------0--------|
E|-----------------------------------| 3x
     
     A                         E    D  A
Haneula hangsang neoreul balabolgei 
       A                            E   D  A
guleum aneoneun nayei gamseong ingeoya
       A                         E   D  A
Balam amyan gireul deilyeo dajollae 
                                A
bada yaneoneun gipeun maeum iya




END
YAAAAYY! THANK YOU
Добавлено: 17.06.2013
Другие материалы по этой песне:
  • Аккорды и текст

Страница создана 17.06.2013
http://primanota.ru/misc-unsigned-bands/the-melody-paradise-chords.htm
Привет, Гость.
Предлагаем пройти революционный курс по гитаре.
Подарок от PrimaNota.Ru, забирай!