PrimaNota.ru - самый крупный в мире бесплатный архив песенных текстов, аккордов, табулатур и нот


Misc Unsigned Bands - The Howlers - Watch The World Die - таба

Регистрация Запомнить меня
Войти через:  Facebook Google Twitter Vk Yandex Mail.ru

Misc Unsigned Bands - The Howlers - Watch The World Die - таба

Печатать
Просмотров: 42
                                           The Howlers
                                        Watch the World Die

Intro

e|--0-0-2-3-2-0-0-----------3------------2-----------------------------------|
B|--0-0---------1-1-3/5-3-1-0--2~2~----3-3-----------------------------------|
G|--0-----------0-----------0---------2--------------------------------------|
D|--2-----------2-----------0--------0---------------------------------------|
A|--2-----------3-----------2-------0----------------------------------------|
E|--------------------------3------------------------------------------------|


e|---------0-0000---------0-0000-------1-1111--------------------------------|
B|---------0-0000---------1-1111-------0-0000--------------------------------|
G|---------0-0000---------0-0000-------0-0000--------------------------------|
D|---------2-2222---------2-3333-0-----0-0000--------------------------------|
A|---------2-2222-2-0-2-3-3-3333--3-2--2-2222--0-0-2/5-5---------------------|
E|-0-3-2-0---------------------------3-3-3333---3-----7----------------------|


e|---------0-0000-------------------1-1111-----------------------------------|
B|---------0-0000-------------------0-0000-----------------------------------|
G|---------0-0000-------------------0-0000-----------------------------------|
D|---------2-2222-----------0-2-0---0-0000-----------------------------------|
A|---------2-2222-2-0-2-3333-----3--2-2222-0-0-2/5-5-------------------------|
E|-0-3-2-0------------------------3-3-3333--3-----7--0-3-2-0-----------------|


Emin              C                  G                   D
Livin' in a world where we can never understand who we are


Emin              C                  G                   D
Out


-----------|
-----------|
-----------|
-----------|
--0-5-4-0--|
--0-3-2-0--|


Emin              C                   G                   D
Everything is


-----------|
-----------|
-----------|
-----------|
--0-5-4-0--|
--0-3-2-0--|

Emin              C                    G                   D6
Watching the


e|-0-2-3-2-0---------------------------0-2-3-2-0---------7-666-7-------------|
B|-----------1111111/3-3333-0-1---3333-----------1111111-6-555-6-------------|
G|------------------------------2--------------------------------------------|
D|---------------------------------------------------------------------------|
A|---------------------------------------------------------------------------|
E|---------------------------------------------------------------------------|


Emin                                   Emin.....


Emin              C                     G                  D
Dark


Emin              C                     G                  D
A living hell


e|--0----0----1-1-----2-2-2h3-2-0--|
B|--0----1----0---0---3------------|
G|--0----0----0-----0-2------------|
D|--2----2----0-------0------------|
A|--2----3----2-------0------------|
E|------------3--------------------|


Emin              C                     G                   D
A living hell


-----------|
-----------|
-----------|
-----------|
--0-5-4-0--|
--0-3-2-0--|


Emin              C                      G                   D
Everything


-----------|
-----------|
-----------|
-----------|
--0-5-4-0--|
--0-3-2-0--|


Emin              C                      G                   D6
Watching


e|--------------------7---7--------------9-11-11h12-11-9-9--11-11h12-11-9-9--|
B|--8~8~8-5-----5-7/9---9---9-7-6-6h8-6--------------------------------------|
G|----------6-6--------------------------------------------------------------|
D|---------------------------------------------------------------------------|
A|---------------------------------------------------------------------------|
E|---------------------------------------------------------------------------|


e|-11-11h12-11-12/14-12-11-12-11-9-9--11-11h12-11-9-9--11-11h12-11-9-9-------|
B|---------------------------------------------------------------------------|
G|---------------------------------------------------------------------------|
D|---------------------------------------------------------------------------|
A|---------------------------------------------------------------------------|
E|---------------------------------------------------------------------------|


e|-11-11h12-11-12/14-12-11-12-11-9~9~----------------------------------------|
B|---------------------------------------------------------------------------|
G|---------------------------------------------------------------------------|
D|---------------------------------------------------------------------------|
A|---------------------------------------------------------------------------|
E|---------------------------------------------------------------------------|

Emin              C                      G                   D
Everything


-----------|
-----------|
-----------|
-----------|
--0-5-4-0--|
--0-3-2-0--|


Emin              C                      G                   D6
Watching


e|---------0-0000---------0-0000-------1-1111--------------------------------|
B|---------0-0000---------1-1111-------0-0000--------------------------------|
G|---------0-0000---------0-0000-------0-0000--------------------------------|
D|---------2-2222---------2-3333-0-----0-0000--------------------------------|
A|---------2-2222-2-0-2-3-3-3333--3-2--2-2222--0-0-2/5-5---------------------|
E|-0-3-2-0---------------------------3-3-3333---3-----7----------------------|


e|---------0-0000-------------------1-1111----------------------0---------------|
B|---------0-0000-------------------0-0000----------------------0---------------|
G|---------0-0000-------------------0-0000----------------------0---------------|
D|---------2-2222-----------0-2-0---0-0000----------------------2---------------|
A|---------2-2222-2-0-2-3333-----3--2-2222-0-0-2/5-5------------2---------------|
E|-0-3-2-0------------------------3-3-3333--3-----7--0--3--2--0-----------------|
Добавлено: 03.02.2014
Другие материалы по этой песне:
  • Аккорды и текст

Страница создана 03.02.2014
http://primanota.ru/misc-unsigned-bands/the-howlers-watch-the-world-die-chords.htm
Привет, Гость.
Предлагаем пройти революционный курс по гитаре.
Подарок от PrimaNota.Ru, забирай!