PrimaNota.ru - самый крупный в мире бесплатный архив песенных текстов, аккордов, табулатур и нот


Misc Unsigned Bands - The 99s - One Man Show - таба, видео

Регистрация Запомнить меня
Войти через:  Facebook Google Twitter Vk Yandex Mail.ru

Misc Unsigned Bands - The 99s - One Man Show - таба, видео

Печатать
Просмотров: 43
----------------------------------------------------------------------------
                          ONE MAN SHOW - The 99's
----------------------------------------------------------------------------

Tabbed by: Raffaele Pani
Email:Raffi_pani@hotmail.com

Hey guys this is my first tab its by a band called the 99's its called 'one man show' 
might of seen it on MUTV if not then go to this 
The 99's are an unsigned band from Saddleworth, Manchester check them out there cool :)

Tuning: Standard

| /  slide up
| \  slide down
| h  hammer-on
| p  pull-off
| ~  vibrato
| +  harmonic
| x  Mute note
| D  Down stroke
| U  Up stroke


[Intro]

       D  U  D  U     D  U  D  U
e|--------------------------------------------------------------------------|
B|-----1--1--1--1-----1--1--1--1--------------------------------------------|
G|-----2--2--2--2-----2--2--2--2-------x2-----------------------------------|
D|-----3--3--3--3-----2--2--2--2--------------------------------------------|
A|--3--3--3--3--3--0--------------------------------------------------------|
E|--------------------------------------------------------------------------|

[Verse]

      D  U  D  U     D  U  D  U
e|--------------------------------------------------------------------------|
B|-----1--1--1--1-----1--1--1--1--------------------------------------------|
G|-----2--2--2--2-----2--2--2--2-------x8-----------------------------------|
D|-----3--3--3--3-----2--2--2--2--------------------------------------------|
A|--3--3--3--3--3--0--------------------------------------------------------|
E|--------------------------------------------------------------------------|

[Chorus]

e|-----------------2--2--2--2-----------------------------------------------|
B|-----1--1--1--1--3--3--3--3-----------------------------------------------|
G|-----------------2--2--2--2-----2--2--2--2--------------------------------|
D|-----2--2--2--2-----------------3--3--3--3-----5--5--5--5-----------------|
A|--3--3--3--3--3-----------------3--3--3--3-----5--5--5--5-----------------|
E|-----------------------------1--1--1--1--1--3--3--3--3--3-----------------|

[You know thats yesterday]

e|--3--3--2--2-----x--------------------------------------------------------|
B|--3--3--3--3--1--x--1-----------------------------------------------------|
G|--0--0--2--2--2--x--2------x2---------------------------------------------|
D|--0--0--------2--x--2-----------------------------------------------------|
A|--2--2--------------------------------------------------------------------|
E|--3--3--------------------------------------------------------------------|

[Verse 2]

      D  U  D  U     D  U  D  U
e|--------------------------------------------------------------------------|
B|-----1--1--1--1-----1--1--1--1--------------------------------------------|
G|-----2--2--2--2-----2--2--2--2-------x8-----------------------------------|
D|-----3--3--3--3-----2--2--2--2--------------------------------------------|
A|--3--3--3--3--3--0--------------------------------------------------------|
E|--------------------------------------------------------------------------|

[Chorus]

e|-----------------2--2--2--2-----------------------------------------------|
B|-----1--1--1--1--3--3--3--3-----------------------------------------------|
G|-----------------2--2--2--2-----2--2--2--2--------------------------------|
D|-----2--2--2--2-----------------3--3--3--3-----5--5--5--5-----------------|
A|--3--3--3--3--3-----------------3--3--3--3-----5--5--5--5-----------------|
E|-----------------------------1--1--1--1--1--3--3--3--3--3-----------------|

[You know thats yesterday]

e|--3--3--2--2-----x--------------------------------------------------------|
B|--3--3--3--3--1--x--1-----------------------------------------------------|
G|--0--0--2--2--2--x--2------x2---------------------------------------------|
D|--0--0--------2--x--2-----------------------------------------------------|
A|--2--2--------------------------------------------------------------------|
E|--3--3--------------------------------------------------------------------|

And thats pretty much the whole song :) Good look there a cool band.
Добавлено: 10.01.2014
Другие материалы по этой песне:
  • Аккорды и текст

Страница создана 10.01.2014
http://primanota.ru/misc-unsigned-bands/the-99s-one-man-show-chords.htm
Привет, Гость.
Предлагаем пройти революционный курс по гитаре.
Подарок от PrimaNota.Ru, забирай!