PrimaNota.ru - самый крупный в мире бесплатный архив песенных текстов, аккордов, табулатур и нот


Misc Unsigned Bands - Sugar In The Gas Tank - Pretty Noose - аккорды и текст

Регистрация Запомнить меня
Войти через:  Facebook Google Twitter Vk Yandex Mail.ru

Misc Unsigned Bands - Sugar In The Gas Tank - Pretty Noose - аккорды и текст

Печатать
Просмотров: 146
Уроки эстрадного вокала в Санкт-Петербурге
Sugar In The Gas Tank - Pretty Noose
Misc Unsigned Bands
-------------------------------------------------------------------------------
                            Pretty Noose (Acoustic cover of Soundgarden)
-------------------------------------------------------------------------------
             
ARTIST: Sugar in the Gas Tank (formerly Remedy) 
ALBUM:  
YEAR: 2010

https://www.youtube.com/watch?v=m5oRL7QhA2Y

tabbed by : pp1pete

CAPO:   0
TUNING: Standard 

- THIS SONG IS USUALLY PLAYED IN A DROP TUNING  - THIS VERSION IS TABBED TO STANDARD TUNING

Difference from other versions
 [ first
 [ full rubric


---INTRO/RIFF--- 

Guitar 1 x2
    C                    Eb                C                   F
e|----------------|-------------------|----------------|----------------|----------------|
B|----------------|-------------------|----------------|----------------|----------------|
G|----------------|-------------------|----------------|----------------|----------------|
D|---------8-10-8-|-------------------|---------8-10-8-|----------10*---|----------------|
A|----10----------|--8-7--------------|----10----------|---7-8----------|----------------|
G|--8-------------|---------6-8-------|--8-------------|----------------|----------------|




Guitar 1 x2
    C                    Eb                C                   F
e|----------------|-------------------|----------------|----------------|----------------|
B|----------------|-------------------|----------------|----------------|----------------|
G|----------------|-------------------|----------------|----------------|----------------|
D|---------8-10-8-|-------------------|---------8-10-8-|----------10*---|----------------|
A|----10----------|--8-7--------------|----10----------|---7-8----------|----------------|
G|--8-------------|---------6-8-------|--8-------------|----------------|----------------|

Guitar 2 x2 with guitar 1
    
e|----------------|-------------------|----------------|----------------|----------------|
B|----------------|-------------------|----------------|----------------|----------------|
G|---------12-----|-----------12-10---|-10-9-9---------|----------------|----------------|
D|--10-10---------|----10-10-------12-|----------------|----------------|----------------|
A|----------------|-------------------|----------------|----------------|----------------|
G|----------------|-------------------|----------------|----------------|----------------|





---VERSE 1--- 


 Eb (palm mute)

 G        A   Bb             
 I caught the moon today
 Eb         E   F                  C     D Eb   E F 
 Pick it up and throw it away, all right
G5      A  Bb  
 I got the perfect steal
 Eb              E     F              C     D Eb   E F 
 A cleaner love with a dirty feel all right
 G       A   Bb   
 Fallout and take the bait, 
 Eb              E   F                   C     D Eb   E F 
 Eat the fruit,  And kiss the snake good nighT
  
 G  Bb
 
 G            Bb         
 Common ruse, dirty face
 F               Ab           
 Pretty noose is pretty hate

---CHORUS 1--- 

       Eb                  Ab             B
 And I don't like what you got me hanging from
       Eb                  Ab             B
 And I don't like what you got me hanging from
       Eb                  Ab             B
 And I don't like what you got me hanging from
       Eb                  Ab             B
 And I don't like what you got me hanging from


---INTERLUDE 1--- 


    G  Eb   C

    C                     Bb               C                    Eb
e|---------------------|----------------|--------------------|----------------|---------------|
B|---------------------|----------------|--------------------|----------------|---------------|
G|---------------------|----------------|--------------------|----------------|---------------|
D|-------------8-10-8--|----------------|-------------8-10-8-|------------10*-|---------------|
A|--------10-----------|---8-7----------|--------10----------|----7----8------|---------------|
G|----8----------------|---------6-8----|----8---------------|----------------|---------------|


---VERSE 2--- 

 Ab (palm mute)

 G        A     Bb              
 Let your motor race
 Eb         E   F               C     D Eb   E F
 Pick it up and get this mother gone
 G        A   Bb    
 Out from and far away, 
     Eb              E   F                C     D Eb   E F 
 the wooden stake,  This thing has got me on

 G            Bb         
 Common ruse, dirty face
 F               Ab           
 Pretty noose is pretty hate


 ---CHORUS 1--- 

       Eb                  Ab             B
 And I don't like what you got me hanging from
       Eb                  Ab             B
 And I don't like what you got me hanging from
       Eb                  Ab             B
 And I don't like what you got me hanging from
       Eb                  Ab             B
 And I don't like what you got me hanging from


---INSTURMENTAL--- 

 G     Eb     F     F       
| - - | - - | - - | - - 

 C     Eb     F     F     
| - - | - - | - - | - - 

 G     Bb     F     F     
| - - | - - | - - | - -

  C D   Eb E  F F F
| - - | - - | - -   | - - 



---VERSE 3--- 

 G            Bb    
 Common ruse, dirty face
 F                Ab    
 Pretty noose is pretty hate

 G            A#   A  F
 I don't care what you got
 G            E        F
 I don't care what you need, 
 G              A# F      G# G  F# F 
 I don't want a-ny-thing  da da da da


 da da da da

 ---CHORUS 3--- 
       Eb                  Ab             B
 And I don't like what you got me hanging from
       Eb                  Ab             B
 And I don't like what you got me hanging from
       Eb                  Ab             B
 And I don't like what you got me hanging from


 ---ENDING--- 
       Eb                  Ab             B
 And I don't like what you got me hanging from
       Eb                  Ab             B
 And I don't like what you got me hanging from

  F F# G A# A G  
| - -  - -  - - - - |  

                     Yeahh




Добавлено: 05.10.2015
Другие материалы по этой песне:
  • Аккорды и текст

Страница создана 05.10.2015
http://primanota.ru/misc-unsigned-bands/sugar-in-gas-tank-pretty-noose-chords.htm
Привет, Гость.
Предлагаем пройти революционный курс по гитаре.
Подарок от PrimaNota.Ru, забирай!