PrimaNota.ru - самый крупный в мире бесплатный архив песенных текстов, аккордов, табулатур и нот


Misc Unsigned Bands - Straatligkinders - Gedagte Vir Die Dag - таба

Регистрация Запомнить меня
Войти через:  Facebook Google Twitter Vk Yandex Mail.ru

Misc Unsigned Bands - Straatligkinders - Gedagte Vir Die Dag - таба

Печатать
Просмотров: 39
Band name: Straatligkinders
Song title: Gedagte vir die dag

this isn't really an unsigned band, they're from south-africa and is the hottsest thing 
the beatels in afrikaans rock!
do yourself a favour and download this tabs and get their music

Intro:
e|-------------------------------------------------------|
B|-------------------------------------------------------|
G|-------------------------------------------7-7-7-------|
D|-------2-------------2-------------2-------7-7-7-7-5-4-|   x2
A|-------------------------------------------5-5-5-7-5-4-|
E|-0h2p0---5-3-2-0h2p0---2-3-3-0h2p0---5-3-2-------5-3-2-|

e|-------------------------------------------------|
B|-------------------------------------------------|
G|-------------------------------------7-7-7-------|
D|-2-2-2-------2-2-2-------2-2-2-------7-7-7-7-5-4-|
A|-2-2-2-------2-2-2-------2-2-2-------5-5-5-7-5-4-|
E|-0-0-0-5-3-2-0-0-0-2-3-3-0-0-0-5-3-2-------5-3-2-|

Riff:
e|---------------------------------|
B|---------------------------------|
G|---------5-5-5-----------9-12-7--|
D|-2-2-2---5-5-5---5-5-5---x-------| x x x
A|-2-2-2---3-3-3---5-5-5---7-10-5--|
E|-0-0-0-----------3-3-3-----------|

Verse 1:
e|-----------------------------------------------------------------|
B|-----------------------------------------------------------------|
G|---------------9-9-9-9-9-9-9-5-5-5-5-5-5-5-12-12-12-12-12-12-12--|
D|-2-2-2-2-2-2-2-x x x x x x x-5-5-5-5-5-5-5-x---------------------| x x x x x x x x x x
A|-2-2-2-2-2-2-2-7-7-7-7-7-7-7-3-3-3-3-3-3-3-10-10-10-10-10-10-10--|
E|-0-0-0-0-0-0-0---------------------------------------------------|

e|---------------------------------------|
B|---------------------------------------|
G|-------------------------------9-12-7--|
D|-5-5-5-5-5-5-5-5-5-5-5-5-5-5-5-x-------| x x x
A|-5-5-5-5-5-5-5-5-5-5-5-5-5-5-5-7-10-5--|
E|-3-3-3-3-3-3-3-3-3-3-3-3-3-3-3---------|

e|-----------------------------------------------------------------|
B|-----------------------------------------------------------------|
G|---------------9-9-9-9-9-9-9-5-5-5-5-5-5-5-12-12-12-12-12-12-12--|
D|-2-2-2-2-2-2-2-x x x x x x x-5-5-5-5-5-5-5-x---------------------| x x x x x x x x x x
A|-2-2-2-2-2-2-2-7-7-7-7-7-7-7-3-3-3-3-3-3-3-10-10-10-10-10-10-10--|
E|-0-0-0-0-0-0-0---------------------------------------------------|

e|---------------------------------------|
B|---------------------------------------|
G|-------------------------------9-12-7--|
D|-5-5-5-5-5-5-5-5-5-5-5-5-5-5-5-x-------| x x x
A|-5-5-5-5-5-5-5-5-5-5-5-5-5-5-5-7-10-5--|
E|-3-3-3-3-3-3-3-3-3-3-3-3-3-3-3---------|

Chorus:
e|-----------------------------------------------------------------|
B|-----------------------------------------------------------------|
G|-----------------5-5-5-5-5-5-5-5-----------------7-7-7-7-7-7-7-7-|
D|-2-2-2-2-2-2-2-2-5-5-5-5-5-5-5-5-5-5-5-5-5-5-5-5-7-7-7-7-7-7-7-7-|  x2
A|-2-2-2-2-2-2-2-2-3-3-3-3-3-3-3-3-5-5-5-5-5-5-5-5-5-5-5-5-5-5-5-5-|
E|-0-0-0-0-0-0-0-0-----------------3-3-3-3-3-3-3-3-----------------|

Oh oh oh oh oh oh part:
e|-----------------------------------------------------------------|
B|-----------------------------------------------------------------|
G|-----------------5-5-5-5-5-5-5-5-----------------7-7-7-7-7-7-7-7-|
D|-2-2-2-2-2-2-2-2-5-5-5-5-5-5-5-5-5-5-5-5-5-5-5-5-7-7-7-7-7-7-7-7-|  x2
A|-2-2-2-2-2-2-2-2-3-3-3-3-3-3-3-3-5-5-5-5-5-5-5-5-5-5-5-5-5-5-5-5-|
E|-0-0-0-0-0-0-0-0-----------------3-3-3-3-3-3-3-3-----------------|

Verse 2: (use quick up-and-down struming for this palm muted part)
e|---------------------------------------------------------------------|
B|---------------------------------------------------------------------|
G|---------------------------------------------------------------------|
D|-2~----------------------------------5-5-5-5-5-5-5-5-5-5-5-5-5-5-5-5-|
A|-2~--2-2-2-2-2-2-2-2-2-2-2-2-2-2-2-2-3-3-3-3-3-3-3-3-3-3-3-3-3-3-3-3-|
E|-0~--0-0-0-0-0-0-0-0-0-0-0-0-0-0-0-0---------------------------------|
       ****************************************************************

e|---------------------------------------------------|
B|---------------------------------------------------|
G|---------------------------------7-7-9-9-12-12-7-7-|
D|---------------------------------7-7-x x x x x x x-|
A|-5-5-5-5-5-5-5-5-5-5-5-5-5-5-5-5-5-5-7-7-10-10-5-5-|
E|-3-3-3-3-3-3-3-3-3-3-3-3-3-3-3-3-------------------|
   *******************************

e|-------------------------------------------------------|
B|-------------------------------------------------------|
G|-----9-9-9-9-9-9-9-9-9-5-5-12-12-12-12-12-12-12-12-12--|
D|-2-2-x x x x x x x x x-5-5-x---------------------------| x x x x x x x x x x x x x
A|-2-2-7-7-7-7-7-7-7-7-7-3-3-10-10-10-10-10-10-10-10-10--|
E|-0-0---------------------------------------------------|

e|-----------------------------------|
B|-----------------------------------|
G|-----------------7-7-9-9-12-12-7-7-|
D|-5-5-5-5-5-5-5-5-7-7-x x x x x x x-|
A|-5-5-5-5-5-5-5-5-5-5-7-7-10-10-5-5-|
E|-3-3-3-3-3-3-3-3-------------------|

Chorus:
No guitar

Oh oh oh oh oh oh part:
e|-----------------------------------------------------------------|
B|-----------------------------------------------------------------|
G|-----------------5-5-5-5-5-5-5-5-----------------7-7-7-7-7-7-7-7-|
D|-2-2-2-2-2-2-2-2-5-5-5-5-5-5-5-5-5-5-5-5-5-5-5-5-7-7-7-7-7-7-7-7-|  x2
A|-2-2-2-2-2-2-2-2-3-3-3-3-3-3-3-3-5-5-5-5-5-5-5-5-5-5-5-5-5-5-5-5-|
E|-0-0-0-0-0-0-0-0-----------------3-3-3-3-3-3-3-3-----------------|

Bridge:
e|-------------------------------|
B|-------------------------------|
G|-------------5---------------5-|
D|-2-2---2-2---5---2-2---2-2---5-|
A|-2-2---2-2---3---2-2---2-2---3-|
E|-0-0---0-0-------0-0---0-0-----|

e|-------------------------------------------------------------|
B|-------------------------------------------------------------|
G|-------------5-----------------------------5---------------5-|
D|-5-2---5-2---5---5-2---5-5-4---5-2---5-2---5---5-2---5-2---5-|
A|-------------3-----------5-4---------------3---------------3-|
E|-------------------------3-2---------------------------------|

e|-----------------------------|
B|-----------------------------|
G|-------------5---------------|
D|-5-2---5-2---5---5-2---5-5-4-|
A|-------------3-----------5-4-|
E|-------------------------3-2-|

e|---------------------------|
B|---------------------------|
G|-------------5-------------|
D|-2-2---2-2---5---2-2---2-2-|
A|-2-2---2-2---3---2-2---2-2-|
E|-0-0---0-0-------0-0---0-0-|

Repeat chorus

Repeat oh-oh-oh

Outro:
e|---------------------------------------------------------|
B|---------------------------------------------------------|
G|-------------------------------------------7-7-7---------|
D|-------2-------------2-------------2-------7-7-7-7-5-4-2-|
A|-------------------------------------------5-5-5-7-5-4-2-|
E|-0h2p0---5-3-2-0h2p0---2-3-3-0h2p0---5-3-2-------5-3-2-0-|

enjoy!!!
Добавлено: 01.01.2014
Другие материалы по этой песне:
  • Аккорды и текст

Страница создана 01.01.2014
http://primanota.ru/misc-unsigned-bands/straatligkinders-gedagte-vir-die-dag-chords.htm
Привет, Гость.
Предлагаем пройти революционный курс по гитаре.
Подарок от PrimaNota.Ru, забирай!