PrimaNota.ru - самый крупный в мире бесплатный архив песенных текстов, аккордов, табулатур и нот


Misc Unsigned Bands - Sentinels In The Dust - Kismat - таба

Регистрация Запомнить меня
Войти через:  Facebook Google Twitter Vk Yandex Mail.ru

Misc Unsigned Bands - Sentinels In The Dust - Kismat - таба

Печатать
Просмотров: 33
"Sentinels In The Dust"
Music: Kismat
Lyrics: Austin Henczel
Copyright Soundscape Music Records Inc. 2007

Standard Tuning: E A D G B E


Part I (4x) Guitar 1&2
|-------------------------------------------------------------------|
|-------------------------------------------------------------------|
|-------------------------------------------------------------------|
|----------------------------------5--5-5--5--5-5--5--5-5--5--------|
|-2--2-2--2--2-2--2--2-2--2--------3--3-3--3--3-3--3--3-3--3--------|
|-0--0-0--0--0-0--0--0-0--0-000000-0--0-0--0--0-0--0--0-0--0-000000-|

Cont'
---------------------------------------------------------------------|
---------------------------------------------------------------------|
---------------------------------------------------------------------|
-7--7-7--7--7-7--7--7-7--7-------------------------------------------|
-5--5-5--5--5-5--5--5-5--5--------2--2-2--2--2-2--2--2-2--2---3---0-2|
-0--0-0--0--0-0--0--0-0--0-000000-0--0-0--0--0-0--0--0-0--0-0-1-0-0-0|


Part II Guitar 1
|-------------------------------------------|
|-------------------------------------------|
|-------------------------------------------|
|-----------------------99997777--------7777|
|-7777771010101099997777--------10101010----|
|-------------------------------------------|

Guitar 2
|--------------------------------------------|
|--------------------------------------------|
|--------------------------------------------|
|--------------------------------------------|
|-2.-----------------------------------------|
|-0.-----------------------------------------|

Guitar 1
|-------------------------------------------|
|-------------------------------------------|
|-------------------------------------------|
|-----------------------99997777--------7777|
|-------1010101099997777--------10101010----|
|-888888------------------------------------|

Guitar 2
|-------------------------------------------|
|-------------------------------------------|
|-------------------------------------------|
|-5.----------------------------------------|
|-3.----------------------------------------|
|-3.----------------------------------------|

Guitar 1
|-------------------------------------------------|
|-------------------------------------------------|
|-------------------------------------------------|
|-------------------------------------------------|
|-------------101010109999777755551010101055559999|
|-101010101010------------------------------------|

Guitar 2
|-------------------------------------------------|
|-------------------------------------------------|
|-------------------------------------------------|
|-7.--------------------------7.------------------|
|-5.--------------------------5.------------------|
|-5.--------------------------5.------------------|


Repeat Part II with both guitars together


Part IIIa (2x)
|-----------------------------------------------------------------|
|-----------------------------------------------------------------|
|-----------------------------------------------------------------|
|-----5---4-----5---4-----5--4-------5---4-----5---4-----7--5-4---|
|-7-7---7---7-7---7---7-7------5-3-3---3---5-5---5---5-5--------7-|
|-----------------------------------------------------------------|

Part IIIb
|-----------------------------------------------------------------|
|-----------------------------------------------------------------|
|-----------------------------------------------------------------|
|-----10---9-----7---9---9h10-9------5---4-----5---4-----7--5-4---|
|-7-7----7---7-7---7---7---------3-3---3---5-5---5---5-5--------7-|
|-----------------------------------------------------------------|

Part IIIc
|------------------------------------------------------|
|------------------------------------------------------|
|------------------------------------------------------|
|-----5---4-----5---4-----5--4-------5---4-----5-4-----|
|-7-7---7---7-7---7---7-7------5-3-3---3---5-5-----9-7~|
|------------------------------------------------------|

Part IV (2x)
|---------------------------------------------------------------------|
|---------------------------------------------------------------------|
|---------------------------------------------------------------------|
|-9--9-9-9-9-9--5-7--4-4-5-5-7-7-5--9--9-9-9-9-9--12-5--7-7-5-5-4-4-5-|
|-7--7-7-7-7-7--3-5-----------------7--7-7-7-7-7--10-3----------------|
|---------------------------------------------------------------------|


End Introduction


Part V (verse 2x)
|------------------------------------------------------|
|------------------------------------------------------|
|------------------------------------------------------|
|-9-9999-9-9999-9-5-5555-5-5555-5-7-7777-7-7777-7-7777-|
|-7-7777-7-7777-7-3-3333-3-3333-3-5-5555-5-5555-5-5555-|
|------------------------------------------------------|

Cont'
----------------------------------------------------------|
----------------------------------------------------------|
----------------------------------------------------------|
-12-12121212-12-12121212-12-9-9999-9-9999-9-7-----10----9-|
-10-10101010-10-10101010-10-7-7777-7-7777-7-7-7-7-7-7-7-7-|
----------------------------------------------------------|

Cont'
------------------------|
------------------------|
------------------------|
-5-5555-5/9-7-777777777-|
-3-3333-3/7-5-555555555-|
------------------------|

Part VI (2x)                                       Play 2nd Time
|----------------------------------------<5>----||-----<5>-------|
|-------------------------------------<5>---<5>-||--<5>---<5>----|
|-----------------------------------------------||-----------<5>-|
|-7/9-9-9-9-----------5-----5---7---------------||---------------|
|-5/7-7-7-7-9-----9---3-3-3-3-3-5-5-5-----------||---------------|
|-----------7-7-7-7-7---------------------------||---------------|

Part VIIa (2X)
|-----------------------------------|
|-----------------------------------|
|-----------------------------------|
|-----------------5---5-5/7-7-------|
|-----2---2-4-5---3---3-3/5-5-------|
|-3-2-0---0-2-3---------------0-3-2-|

Part VIIb (2x)
|----------------------------------------------------------------|
|----------------------------------------------------------------|
|----------------------------------------------------------------|
|----------------------------------------------------------------|
|2------2------2-4------4------4-7------7------7-5-----5-5-----5-|
|0-0000-0-0000-0-2-2222-2-2222-2-5-5555-5-5555-5-3-333-3-2-222-2-|

SOLO COMING SOON......
Добавлено: 05.08.2013
Другие материалы по этой песне:
  • Аккорды и текст

Страница создана 05.08.2013
http://primanota.ru/misc-unsigned-bands/sentinels-in-the-dust-kismat-chords.htm
Привет, Гость.
Предлагаем пройти революционный курс по гитаре.
Подарок от PrimaNota.Ru, забирай!