PrimaNota.ru - самый крупный в мире бесплатный архив песенных текстов, аккордов, табулатур и нот


Misc Unsigned Bands - Scene Of Action - Home - таба, видео

Регистрация Запомнить меня
Войти через:  Facebook Google Twitter Vk Yandex Mail.ru

Misc Unsigned Bands - Scene Of Action - Home - таба, видео

Печатать
Просмотров: 20
Уроки эстрадного вокала в Санкт-Петербурге
e|---------------------------------------------------------------------------|
B|---------------------------------9-8----6~---------11b13-------------------|
G|---------------------------------------------------------------------------|
D|---------------------------------------------------------------------------|
A|---11\0--------------11----------------------------------------------------|
E|---------4~----------------------------------------------------------------|

e|--8--------8-------------------------------------------------------------0--|
B|----9--------------------15b17-------------------------------------------1--|
G|------10-9---9-----------------------------------------------------------0--|
D|-------------------------------------10-10-10-10-10-10-10-10-10-10-10-10-2--|
A|-------------------------------------------------------------------------3--|
E|-------------------------------------------------------------------------0--|

e|---------------------------------------------------------------------------|
B|---------------------------------------------------------------------------|
G|--12-----------12-------12----12b*13-------13r---------------12----12------|
D|--------10-10-----10-10----10-------------------10-10-----------10---------|
A|---------------------------------------------------------------------------|
E|---------------------------------------------------------------------------|

e|---------------------------------------------------------------------------|
B|------------------------------------------------------------15b17----------|
G|--13b*14----14r---------------14---------14-----14-------------------------|
D|---------------10-10-10----------10--10-----10-----------------------------|
A|---------------------------------------------------------------------------|
E|---------------------------------------------------------------------------|

e|--12--------------------12---------------------12-------------13-----------|
B|---------------------------------------------------------------------------|
G|----12-12-12---------------12-12-12---------------12-12-12-------12-12-12--|
D|---------------------------------------------------------------------------|
A|---------------------------------------------------------------------------|
E|---------------------------------------------------------------------------|

e|-15------------17b18-------------17--15--13--12~---------------------------|
B|---------------------------------------------------------------------------|
G|---12-12-12----------------------------------------------------------------|
D|---------------------------------------------------------------------------|
A|---------------------------------------------------------------------------|
E|---------------------------------------------------------------------------|


************************************
| \   slide down
| ~   vibrato
| b   Bend
| br  Bend release
************************************
Добавлено: 22.08.2017
Другие материалы по этой песне:
  • Аккорды и текст

Страница создана 22.08.2017
http://primanota.ru/misc-unsigned-bands/scene-of-action-home-chords.htm
Привет, Гость.
Предлагаем пройти революционный курс по гитаре.
Подарок от PrimaNota.Ru, забирай!